Song name
# A B C D E F G H I J K L M N O P Q R S T U V W X Y Z

Rockfour - Wild Animals tab

		        WILD ANIMALS - Rockfour
----------------------------------------------------------------------------
Tabbed by: Guy
Email:

Tuning: Standard Tuning

INTRO:

   Am9                       G6        Fmaj7b5                   E6
e|-------0---------|-------0-------0-|-------0---------|-------0-------0-|
B|-----0-----0-----|-----0-------0---|-----0-----0-----|-----0-------0---|
G|---5---------5---|---5-------5-----|---5---------5---|---5-------5-----|
D|-7-------------7-|-7-------5-------|-3-------------3-|-3-------2-------|
A|-----------------|-----------------|-----------------|-----------------|
E|-----------------|-----------------|-----------------|-----------------|

  Dm9                                  E(7)
e|-------0---------|-7-----0-----7---|-----------------|-----------------|
B|-----6---6-------|---6-----6-----6-|-----------------|-----------------|
G|---7-------7---7-|-----7-----7-----|-1-1-1-1-1-1-1-1-|-1---------------|
D|-0-----------0---|-----------------|-2-2-2-2-2-2-2-2-|-2---------------|
A|-----------------|-----------------|-----------------|-----------------|
E|-----------------|-----------------|-----------------|-----------------|

VERSE 1: (The picking is pretty similar to the Intro)

Am9 G6     Fmaj7b5
I feel the change
  E6      Dm9              E
A million ways to turn the page
Am9 G6          Fmaj7b5
"No way!" she said
  E6          Dm9              E
I thought you knew it wouldn't last for long

BRIDGE 1a:

Dm
And I just don't know
        E
Well, I don't know why you came
Dm                        E               E7
It never ends, I keep forgetting what you hate
Don't say -

CHORUS:

Am
Goodbye my love
      F
Cause I don't wanna leave you
  Dm                 E      E7
Tonight let out your phobia
Am
Goodbye my love
F                       Dm
Always did believe in a crash, we're like
     E
Wild animals

BRIDGE 2:

Am9          G6         Fmaj7b5
So fast I've lost today
     C         E
But I'll be on track again

BRIDGE 1b:

Dm9
And I just don't know
      E
Well, I don't know why you came
Dm9                      E
It never ends, I keep forgetting I'm to blame

VERSE 2:

But I feel the change
Killed the rage
Keep forgetting what you hate
Don't say -

CHORUS:

Am
Goodbye my love
      F
Cause I don't wanna leave you
  Dm                 E      E7
Tonight let out your phobia
Am
Goodbye my love
F                       Dm
Always did believe in a crash, we're like
     E
Wild animals

OUTRO:

    Dm     F        Am    F
And if you meant to move ahead
Dm   E
Goodbye
Am
I won't mind

    Dm     F      Am    F
And if you have another half
Dm  E
Goodbye
Am
I'll let go of everything

Guitar I plays this mini-solo while Guitar II plays the chords above

  Am9            G6    Fmaj7b5       E6    Dm9       E   
e|---------|---------|---------|---------|---------|---------|
B|---------|---------|---------|---------|---------|---------|
G|-5-------|-----4-5-|---------|-----4-5-|---------|---------|
D|---------|---------|-7-------|---------|-7-------|-6-------|
A|---------|---------|---------|---------|---------|---------|
E|---------|---------|---------|---------|---------|---------|

{

e|-------0---------|-------0---------|
B|-----0---0-------|-----0---0-------|
G|---5-------5---5-|---5-------5---5-|
D|-7-----------5---|-4-----------4---|
A|-----------------|-----------------|
E|-----------------|-----------------|

Fmaj7 E7
Goodbye

} x3

finish on A

Chords Used:

Am9  G6  Fmaj7b5  E6  Dm9  Fmaj7
-0---0----0-------0----0-----0--
-0---0----0-------0----6-----1--
-5---5----5-------5----7-----2--
-7---5----3-------2----0-----3--
--------------------------------
--------------------------------

| /  slide up
| \  slide down
| h  hammer-on
| p  pull-off
| ~  vibrato
| +  harmonic
| x  Mute note
============================================================================
Tap to rate this tab
 
# A B C D E F G H I J K L M N O P Q R S T U V W X Y Z