Song name
# A B C D E F G H I J K L M N O P Q R S T U V W X Y Z

Rocking Horse Winner - Raspberry Water tab

Help us improve GuitareTab! Take a short survey!
www.therockinghorsewinner.com/ 
The Rocking Horse Winner-Raspberry Water
Tabbed by Anti-flagfan3455
any questions or comments email me pland@gwi.net

Intro/verse 1 & 2

E:------------------------
B:-------------5----------
G:--7-5-5-4-5-7-7-5-------
D:-----5-----5------------
A:------------------------
E:-5---------------8------

Chorus:

E:--------------------------------------------------------------
B:--------------------------------------------------------------
G:--------------------------------------------------------------
D:-3-3-3-3-3-3-3-7-7-7-7-7-7-7-3-3-3-3-3-3-3-2-2-2-2-2-2-2------
A:-3-3-3-3-3-3-3-7-7-7-7-7-7-7-3-3-3-3-3-3-3-2-2-2-2-2-2-2------
E:-1-1-1-1-1-1-1-5-5-5-5-5-5-5-1-1-1-1-1-1-1--------------------
Related for Raspberry Water tab