Song name
# A B C D E F G H I J K L M N O P Q R S T U V W X Y Z

Rockstar - Parting Time tab

this is one of my song tab collection so if u have any request or suggestion just email me at
castroraul98@yahoo.com.tnx.....


Tuning: half step down
Chords used:
E/G# -   4xx45x
Esus4 -  022200
A/c# -   x4222x
F#/Bb -  x144xx
B/D# -   x6444x

Intro: A-E/G#-F#m-E-D-A/C#-Bm-Esus4-E

Piano:let gtr. play
e|-------9-------12------12-12---10-9-----9--9---------------9-10--9--14--12-------|
B|-10-12---12-10------10---------------12------10----9h10--------------------------|
G|------------------9-------------------------------------9------------------------|
D|-------------------------------------------------9-------------------------------|
A|-------0------------------10---------10--------9-------------9------9------------|
E|---------------------------------------------------------------------------------|


e|------------9-10-9----------7--0-5-7-4---------------------------------------|
B|--------10------------12-10--------------------------------------------------|
G|------9----------------------------------------------------------------------|
D|----9------------------------------------------------------------------------|
A|--9-----------9--------------------------------------------------------------|
E|----------------------------0--------0---------------------------------------|


Verse 1:
    A              E/G#         F#m	    
I remember the days when you're here with me
      D             A/C#                  Bm    Esus4-E
Those laughters and tears we'd shared for years hmmm..
A                E/G#       F#m
Memories that we had for so long it's me and you
D               A/C#      Bm              F#sus4-F#
Now you're gone away, you left me all alone
B     F#/Bb G#m               e                  B/D#
  go on       do it you want but please don't leave me
     C#m      F#sus4-F#
will break my heart
    B           F#/Bb   G#m
Hey what should I do be by missing you
E                 B/D#               C#m           F#sus4
Please don't disappear these are the words wishing me
D                A/C#             Bm       A   Esus4-E
  Time and time again I wish that you were here


Chorus:do root chords for chords _effects- (m7th)

                A        E/G#            F#m       D
I don't want to lose you girl I need you back to me
E               A        E/G# F#m          D
I don't want to lose you baby Can't you see
E    A          E/G#         F#m       D E
Oh I need you, you've been a part of me


Post Chorus:do root chords for effects 

D   A/C#                Bm      A/C# E c#
  I wish someday you'll be back home
D       A/C#     Bm       A/C#   E C#
  Cause I really miss you darling
D           A/C# Bm Esus4 E
Please come home


Interlude: A--C#m--F#m--D-E, A--E/G#--F#m--D-E x2


Guitar Solo: 
				p.m.
e|-----------------------------------------9h10-10p9----------------------------|
B|--12f-12f^-12f10----10--7---7---------9h10---------------9h12-12p9------------|
G|----------------11-------9---------9------------------------------------------|
D|------------------------------9-11------------------11^--------------9^-------|
A|------------------------------------------------------------------------------|
E|------------------------------------------------------------------------------|

e|--12f---------------------------------------12---------------17---------------|
B|---------------7-5---7-9-7---9--10^-10^-12f----12f-12f^--17f----17^-----------|
G|-------------------7-------9--------------------------------------------------|
D|------------------------------------------------------------------------------|
A|------12-9/-------------------------------------------------------------------|
E|------------------------------------------------------------------------------|



e|-----------------17-17f-17^---------------------------------------------------|
B|--17p15----15/17--------------------------------------------------------------|
G|--------16--------------------------------------------------------------------|
D|------------------------------------------------------------------------------|
A|------------------------------------------------------------------------------|
E|------------------------------------------------------------------------------|

            [castroraul98@yahoo.com ] 
legend:
	f - fullbend
	^ - vibrate
	\ - slidedown
	h - hammer

ppg6'

(Repeat Post Chorus)
Tap to rate this tab
 
# A B C D E F G H I J K L M N O P Q R S T U V W X Y Z