Song name
# A B C D E F G H I J K L M N O P Q R S T U V W X Y Z

Rockstars Lovefist - Dangerous Bastard tab

Intro
                      Good Evening Vice City!                  Welcome!  
|--------------------|-----------------------|--------------------------|
|--------------------|-----------------------|--------------------------|
|-----------4-/-5----|-----------------------|----------4-/-5-----------|
|-3-/-5-5---2-/-3--3-|-----------------------|-3-/-5-5--2-/-3---3-------|
|-1-/-3-3----------1-|-----------------------|-1-/-3-3----------1-------|
|--------------------|-----------------------|--------------------------|

|-------------|-----------------------------------------------|
|-------------|-----------------------------------------------|
|-------------|------------4-/-5-5-5--------------------------|
|-33333333----|-3-/-5-5-5--2-/-3-3-3--2-/-3-3-x-3-x-3-2-------|X2
|-11111111----|-1-/-3-3-3-------------0-/-1-1-x-1-x-1-0-------|
|-------------|------------------------------------------3~~--|
 (---pm---)
    
      Verse pt1                      Verse pt2
|---------------------|   |-----------------------------|
|---------------------|   |-----------------------------|
|---------------------|   |-----------------------------|
|------5-\-3---3-/-5--|X12|--------------5-\-3---3-/-5--|X3
|-5----3-\-1-x-1-/-3--|   |-55555555555--3-\-1-x-1-/-3--|
|-3--x----------------|   |-33333333333-----------------|
                           (----pm-----)
   Verse pt3   Pre-Chorus

|------------||---------|
|------------||---------|
|------------||-5--10---|
|-55555555---||-3---8---|
|-33333333---||---------|
 (---pm---)     Is  It

         Chorus
|----------------------------------------------|
|----------------------------------------------|
|------------4-/-5-5-5-------------------------|
|-3-/-5-5-5--2-/-3-3-3--2-/-3-3-x-3-x-3-2------|X4
|-1-/-3-3-3-------------0-/-1-1-x-1-x-1-0------|
|------------------------------------------3~~-|

  Play All Verse Parts

  Chorus X3

  Last Chorus Before Solo
|--------------------------------------|
|--------------------------------------|
|------------4-/-5-5-5-----------------|
|-3-/-5-5-5--2-/-3-3-3--2-/-3-3-x-3-x--|
|-1-/-3-3-3-------------0-/-1-1-x-1-x--|
|--------------------------------------|
     
     
|---------------------3-6---|
|-----------------3-6-------|
|-------------3-5-----------|
|---------3-5---------------|
|-----3-5-------------------|
|-3-6-----------------------|
 (-------slight-pm--------)
 
   Solo  
|-----------------------------------------------------------|
|-----------------------------------------------------------|
|---------------------------3-1----------------5-3----------|
|-------5-3-----------3-3-------3-1------5-5-------5-3------|
|-5-5-------5-3-------1-1-x---------3-1--3-3-x---------5-3--|
|-3-3-x----------6-3----------------------------------------|

|---------------|
|---------------|
|---------------|
|-8-8---10--5---|X3
|-6-6-x--8--3---|
|---------------|

|-----------------------------------------------------------|
|-----------------------------------------------------------|
|---------------------------3-1----------------5-3----------|
|-------5-3-----------3-3-------3-1------5-5-------5-3------|
|-5-5-------5-3-------1-1-----------3-1--3-3-----------5-3--|
|-3-3-----------6-3-----------------------------------------|

|------------------|
|------------------|
|------------------|
|-8-8---10--5-Hold-|X3
|-6-6----8--3------|
|------------------|
         
|--------------------------------------------------------|
|--------------------------------------------------------|
|--------------------------------------------------------|
|---------------------3-Hold--------5-Hold----8--10-Hold-|
|-5-Hold--------------1-------------3---------6---8------|
|-3------------------------------------------------------|

|----------------------------------------|
|----------------------------------------|
|-4------4--4-4-4-4444444444-4-----------|
|-5------5--5-5-5-5555555555-5-Hold------|
|-5------5--5-5-5-5555555555-5--------5--|
|-3------3--3-3-3-3333333333-3--------3--|

                  END


             Tabbed By Brandon N
Tap to rate this tab
 
# A B C D E F G H I J K L M N O P Q R S T U V W X Y Z