Song name
# A B C D E F G H I J K L M N O P Q R S T U V W X Y Z

Rocksteddy - Boy Kulot tab

Help us improve GuitareTab! Take a short survey!
Boy Kulot
By Rocksteddy
Tabbed by: Kyle Harold Santos

Corection lang poh ito dun sa gnawa kong 1st chords n2ng kantang to...
Intro:

e|---------------------------------|
B|---------------------------------|
G|--7------------------------------|
D|--7----5----9----7---------------|
A|--5----5----9----7---------------|
E|-------3----7----5---------------|



e|---------------------------------|
B|-----------10-0-8-0-7h8p7--------|
G|--7-0-9-0------------------0-----|
D|---------------------------------|
A|---------------------------------|
E|---------------------------------|




Verse:


e|--------------------------------------|
B|--------------------------------------|
G|--7-----------------------------------|
D|--7-----5-------9-7-5-7---------------|
A|--5-----5-------9-7-5-7---------------|
E|--------3-------7-5-3-5---------------|

Minsan ako ay nag-punta sa Mall


e|--------------------------------------|
B|--------------------------------------|
G|--7-----------------------------------|
D|--7-----5-------5h7-5h7-5h7-5h7-------|
A|--5-----5-------5h7-5h7-5h7-5h7-------|
E|--------3-------3h5-3h5-3h5-3h5-------|

Nakita ko ang tropa kong si Boy Kulot


e|--------------------------------------|
B|--------------------------------------|
G|--7-----------------------------------|
D|--7-----5-------9-7-5-7---------------|
A|--5-----5-------9-7-5-7---------------|
E|--------3-------7-5-3-5---------------|

May kasamang Bebot,kumikembot sa my second floor


e|--------------------------------------|
B|--------------------------------------|
G|--7-----------------------------------|
D|--7-----5-------5h7-5h7-5h7-5h7-------|
A|--5-----5-------5h7-5h7-5h7-5h7-------|
E|--------3-------3h5-3h5-3h5-3h5-------|

Magkahawak ang kamay, nakasakay sa escalator



Refrain:

e|--------------------------------------|
B|--------------------------------------|
G|--4-----------------------------------|
D|--4------------7----------------------|
A|--2------------7----------------------|
E|---------------5----------------------|2X


e|--------------------------------------|
B|--------------------------------------|
G|--------------------------------------|
D|------7----------7-------7-------7----|
A|--8-7--------8-7-----8-7-----8-7------|
E|--------------------------------------|2X

Chorus:

e|--------------------------------------|
B|--------------------------------------|
G|--7-----------------------------------|
D|--7-----5-------9-7-5-7---------------|
A|--5-----5-------9-7-5-7---------------|
E|--------3-------7-5-3-5---------------|4X









ung adlib poh nxt tym ipopost ko....tnx poh pa rate na din ng tabs ko....thx...
Related for Boy Kulot tab