Song name
# A B C D E F G H I J K L M N O P Q R S T U V W X Y Z

Rocksteddy - Gising Na tab

Gising Na

Rocksteddy

|---------------------------------------------------|
|   '&'                                             |
|    #                                              |
|    #     Tabbed by Don Michael Acelar De Leon     |
|   _#_    Seventeen na ako!!!                      |
|  ( # )                                            |
|  / O \   donmichael001@yahoo.com                  |
| ( === )                                           |
|  `---'                                            |
|---------------------------------------------------|


Standard Tuning, |EADGBE|


Guitar 1--Rhythm, Crank Distortion
Guitar 2--Lead, "Juven Pelingon" tone (very sweet distortion, slight phaser)

*Drum Beat*


Intro

Guitar 1

  A  Bm  C#m  D
|-x~--x~--x~--x----|
|-x~--x~--x~--x----|
|-2~--4~--6~--7----|
|-2~--4~--6~--7----|
|-0~--2~--4~--5----|
|------------------|


Guitar 2

    A      Bm       C#m       D
|----------------------------------------|
|--/5~~s7---5~~/3s2-3/5~~----------------|
|------------------------2s4-2s4~~-2s4//-|
|----------------------------------------|
|----------------------------------------|
|----------------------------------------|

   A                   Bm
|--------------12--10-----10-12----------|
|----10---12-----------10----------------|
|-/9----9----9---9---9----------9~~//----|
|----------------------------------------|
|----------------------------------------|
|----------------------------------------|

  C#m          D
|----------------------------------------|
|----------------------------------------|
|-/6h7-s9--------------------------------|
|---------7s9-7s9~~~---------------------|
|----------------------------------------|
|----------------------------------------|

  A-A
|----------------------------------------|
|----------------------------------------|
|-2x2~-----------------------------------|
|-2x2~-4/-6~-(h7p6)-(h7p6)---------------| (4x)
|-0x0~-0/-0~-----------------------------|
|----------------------------------------|


Verse part 1

"Bukas sa paggising mo'y babangon ang umaga..."

Guitar 1 (Clean)

  A
|-------------------------0~-------------|
|-2-2--3-3--3h2----3h2----0~-------------|
|-2-2--2-2--2---2~----2~--2~-------------|
|-2----2----2---2~----2~--2~-------------| (2x)
|-0----0----0-------------0~-------------|
|----------------------------------------|


Verse part 2

"Bukas sa paggising mo'y wala na ang problema..."

Guitar 1

  A    Bm  C#m   D
|-0----0----0----0-----------------------|
|-0----3----5----3-----------------------|
|-2----4----6----2-----------------------|
|-2----4----6----0-----------------------| (2x)
|-0----2----4----------------------------|
|----------------------------------------|

Pre-chorus

"Handa nang tawirin..."

 Bm7  A9
|-0---0--|
|-3---0--|
|-2---2--|
|-0---2--| (2x)
|-2---0--|
|--------|

"Ang mundo..."

 *Add Effects*

|--------------|
|--------------|
|--7~--7xx-----|
|--7~--7xx-----|
|--5~--5xx-----|
|--------------|


Chorus

"Kaya't gising na..."

  A  Bm  C#m  D
|-x~--x~--x~--x----|
|-x~--x~--x~--x----|
|-2~--4~--6~--7----|
|-2~--4~--6~--7----| (4x)
|-0~--2~--4~--5----|
|------------------|

"Gising na kaibigan ko...gising na..."

  A-A
|----------------------------------------|
|----------------------------------------|
|-2x2~-----------------------------------|
|-2x2~-4/-6~-(h7p6)-(h7p6)---------------| (4x)
|-0x0~-0/-0~-----------------------------|
|----------------------------------------|


Verse 2--Do Verse 1 progression

Pre-chorus 2--Do Pre-chorus 1 progression

Chorus

"Hwoowhoo...Hindi na..."


 Guitar 1 (clean)

|-0---0---|
|-0---3---|
|-2---2---|
|-2---0---| (3x, then...)
|-0---2---|
|---------|

"Hindi na...matatakot...ang puso"

(fingerpick)

|-5---5---|
|-3---3---|
|-2---2---|
|-2---2---| (4x)
|-2---0---|
|---------|

"...patungo sa iyong tabi!"

*Add Effects*

|--------------|
|--------------|
|--7~--7xx-----|
|--7~--7xx-----|
|--5~--5xx-----|
|--------------|


Chorus


Guitar Solo

    A            Bm                C#m        D
|-------------------------------------------------|
|-------------------------------------------------|
|-------9s11-11-11s9-9-9-9s7-7-7--6s7s9-----------|
|--/7~~----------------------------------7s9-7s9~~|
|-------------------------------------------------|
|-------------------------------------------------|

    A                  Bm
|--------------7-0--12-12~~~--|
|-----10---7-0----------------|
|-----------------------------|
|--/7-------------------------|
|--------9--------------------|
|-----------------------------|

        C#m                                                                      D
|-14-16-17-16-14-----------------------------------------------------------------------|
|-----------------17-17-17-17-14-------------------------------------------------------|
|--------------------------------16-16-14-12-11-12-13-14-14---14-13-11//---------------|
|--------------------------------------------------------------------------12p11-------|
|--------------------------------------------------------------------------------12~~--|
|--------------------------------------------------------------------------------------|

  A                                   Bm
|-14p9----------------9-12p9--------------9-10p9---------------9------|
|-------10-----12-12---------10-----12-12---------10-----12-12---12~~~|
|----------9~-------------------9~-------------------9~---------------|
|---------------------------------------------------------------------|
|---------------------------------------------------------------------|
|---------------------------------------------------------------------|

  C#m        D
|---------12-----------------------|
|-12b14~~~---14rb12p10-12-10//-----|
|----------------------------------|
|----------------------------------|
|----------------------------------|
|----------------------------------|

            A                                   Bm
|-12s-17-17-17---14---------------------------------------------------|
|-------------------17-17---14----------------------------------------|
|------------------------------16-16---14-----------------------------|
|-----------------------------------------16-16-14/-------------------|
|---------------------------------------------------14h16p14----------|
|-------------------------------------------------------------17-17~~-|

  C#m                                                    D
|-----------------------------------------------------17-17~~~|
|--------------------------------------14-14-15-17s19---------|
|--------------------------13-14-16-16------------------------|
|-----------------14/---16------------------------------------|
|-----14-16-16-17---------------------------------------------|
|-/17---------------------------------------------------------|


Juven is a shred god.


Chorus


"Kaya't gising na kaibigan.."


Palm mute chorus chords, then

|-10-9-----12-10-9//-0~----|
|------10------------0~----|
|--------------------2~----|
|--------------------2~----|
|--------------------0~----|
|--------------------------|


"Gising na..."

Outro

A-A
|----------------------------------------|
|----------------------------------------|
|-2x2~-----------------------------------|
|-2x2~-4/-6~-(h7p6)-(h7p6)---------------| (4x)
|-0x0~-0/-0~-----------------------------|
|----------------------------------------|


End in

  A
|--/x|
|--/x|
|-2/x|
|-2/x|
|-0/x|
|--/x|

My warmest thanks to:

Mama, Family, and Friends
AFS Intercultural Programs Philippines
Ateneo De Manila University
Mayor Jejomar Binay and the City Government of Makati
Miss Tarra Quismundo and The Philippine Daily Inquirer
Juven Pelingon and Rocksteddy
Makati Science High School

Bandmates Abraham Jezreel Somo Pincaro and Jo Margarette Wan Remollo of HEARTBURN
Bandmates Herson Colico Beltran, Richard Manuel Cruz, and Bernard Mendoza of LUNCHBOX

And to all supporters of Original Pilipino Music


DEDICATED TO HERSON COLICO BELTRAN aka johnsantos_17... You will live in our hearts and 
forever..Thank you for a lifetime of great music!

8:47 PM - 12:08 AM, August 18-19, 2006

CopyrightŪ 2006 by Don Michael Acelar De Leon. All Rights Reserved.
Tap to rate this tab
# A B C D E F G H I J K L M N O P Q R S T U V W X Y Z