Guitaretab - guitar tabs
Song name
# A B C D E F G H I J K L M N O P Q R S T U V W X Y Z

Rocksteddy - Ayos Lang Ako tab

Highlighted       Show chord diagrams
Title: Ayos lang ako
Artist: Rocksteddy
Album: "Ayos lang ako"
Contact #: 09196998754
Friendster account: rain_aien0502@yahoo.com
Date: Jan. 9, 2009

Intro: The 1st sound you will hear is somewhere 
       in the note of F#m...then 
       E So, play F#m-E...then play this

e--------------------------------------I
b--------------------------------------I
g--------------------------------------I
d--------------------------------------I
a---------5-4--------------------------I
E---55-55-----7-3--22-22-33-3333-5-7---I

cont...

e---------------------------------------I
b---------------------------------------I
g---------------------------------------I
d---------------------------------------I
a---------5-4---------------------------I
E---55-55-----7-3--22-22-33-3333-5-7-5--I

Then play the chordz after drumbeat...

Note: G#/A is also G#m

A-G#/A-F#m-G (2x)

         A    A/G#     F#m-G
Pwede mo ba akong tantanan
       A       A/G#      F#m        G
Pls naman pinipilit na kitang kalimutan
  A            A/G#       F#m         G
Ngayon matapos ang isang taon isang tanong
      A        A/G#         F#m       G
Bakit ba palagi mo na lang akong tinatanong

Ref
Bm      C#m        D-E
Kamusta na ako ngayon
Bm      C#m         D            E      (hold)
Kamusta na ngayon wala ka na sa piling ko

Rif before chorus:

e--55-5-7-9---I
b-------------I
g-------------I
d-------------I
a-------------I
E-------------I

Chorus:
           A
Ayos lang ako
       C#m           D-E
Hindi naman ako umiiyak
           A
Ayos lang ako
       C#m        D    E
Hindi naman ako nasaktan
               A
Napuwing lang ako
       C#m         D  E
Hindi naman ako umiiyak
           A
Ayos lang ako
       C#m           D          E
Kahit hindi ayos ay ayos lang ako

play this after chorus:

e-----------------------------I
b-----------------------------I
g-----------------------------I
d-----------------------------I
a-----------------------------I
E---5-3-2-5-3-2h3-20-2222-----I
[ Tab from: http://www.guitaretab.com/r/rocksteddy/176242.html ]
       A          A/G#         F#m-G
Pwede bang wag ka nang nangungulit
    A        A/G#         F#m       G
Sa text, sa mail, pati na sa telepono
       A      A/G#      F#m-G
Naririndi na kasi ako sayo
      A         A/G#        F#m         G
Bakit ba palagi mo na lang akong tinatanong

Ref
Bm      C#m        D-E
Kamusta na ako ngayon
Bm      C#m         D            E      (hold)
Kamusta na ngayon wala ka na sa piling ko

Chorus:
           A
Ayos lang ako
       C#m           D-E
Hindi naman ako umiiyak
           A
Ayos lang ako
       C#m        D    E
Hindi naman ako nasaktan
               A
Napuwing lang ako
       C#m         D  E
Hindi naman ako umiiyak
           A
Ayos lang ako
       C#m           D          E
Kahit hindi ayos ay ayos lang ako

Adlib: F G A (4x)

Ganito po ung pag play ng adlib...

e-------------------------I
b-------------------------I
g-------------------------I
d-------------------------I
a-------------------------I
E---11-11-33-33-55-5-55---I

Play nyo lang to ng 4x...

Chorus 2:
             A
Gisingin mo ako
         C#m     D     E
Hindi ko na yata kaya to
           A
Ayusin mo ako
         C#m     D     E
Hindi ko na yata kaya to
             A
Gisingin mo ako
         C#m     D     E
Hindi ko na yata kaya to
           A
Ayusin mo ako
         C#m     D     E
Hindi ko na yata kaya to

Chorus:
           A
Ayos lang ako
       C#m           D-E
Hindi naman ako umiiyak
           A
Ayos lang ako
       C#m        D    E
Hindi naman ako nasaktan
               A
Napuwing lang ako
       C#m         D  E
Hindi naman ako umiiyak
           A
Ayos lang ako
       C#m           D          E
Kahit hindi ayos ay ayos lang ako

coda: (same as play in adlib)
F-G-A
F-G-A (hold)

[fin]

Related for Ayos Lang Ako tab
Ayos Lang Ako chords by Rocksteddy