Song name
# A B C D E F G H I J K L M N O P Q R S T U V W X Y Z

Rocksteddy - Skulin Bukulin tab

Contact #: 09196998754
Intro: A...
e--------------------I
b--------------------I
g--------------------I
d--------------------I
a--------------------I
E--535-0-53535-0-3---I
(5x)...
then...
e--------------------------I
b--------------------------I
g--------------------------I
d--------------------------I
a----------5--5--5---------I
E--535-0-3--3--3--5(hold)--I

verse:
e------------------------------------I
b------------------------------------I
g------------------------------------I
d-------------------7-7-777-7-7-777--I
a--7-7-777-7-7-777--5-5-555-5-5-555--I
E--5-5-555-5-5-555-------------------I
(2x)
then in ref...
e-----------------------------------I
b-----------------------------------I
g-----------------------------------I
d--999-99--777-77----------999999---I
a--777-77--555-55--777-77--777777---I
E------------------555-55-----------I
 (2x)
A
Papasok na ako sa eskewela
D
Para sa teacher kong maganda
 A
Mag-aaral na ako nang mabuti
    D
Para meron naman akong mapala
ref:
E
Rock en roll rockin'
D
iskulin bukulin
A                   E
Rock en roll rockin'
A
Gigising na ako ng maaga
D
Para di ako palaging nalalate
A
Dehins na rin ako mangongopya
D
At lagi na ako mapapakabait
ref:
E
Magsusunog ng kilay
D
Buhok sa kilikili
A              E
sunog bigote...
Chorus:
           A
Rock en roll
(A)                         D
Rock en roll na naman sa eskwela
           A
Rock en roll
(A)                         D
Rock en roll na naman sa eskwela
E
Rock en roll rockin'
D
iskulin bukulin
A                   E...A
Rock en roll rockin'
e--------------------I
b--------------------I
g--------------------I
d--------------------I
a--------------------I
E--535-0-53535-0-3---I
(3x)...
then...
e--------------------------I
b--------------------------I
g--------------------------I
d--------------------------I
a----------5--5--5---------I
E--535-0-3--3--3--5(hold)--I
A
Papasok na ako sa eskwela
D
Para sa klasmeyt kong maganda
A
Iwas muna sa trobol
D
Dehins muna ako magbubulakbol
ref:
E
Magsusunog ng kilay
D
Buhok sa kilikili
A              E
sunog bigote...
Chorus:
           A
Rock en roll
(A)                         D
Rock en roll na naman sa eskwela
           A
Rock en roll
(A)                         D
Rock en roll na naman sa eskwela
E
Rock en roll rockin'
D
iskulin bukulin
A                   E
Rock en roll rockin'
===Adlib===A-D-A-D-E-D-A-E...
Chorus:
           A
Rock en roll
(A)                         D
Rock en roll na naman sa eskwela
           A
Rock en roll
(A)                         D
Rock en roll na naman sa eskwela
E
Rock en roll rockin'
D
iskulin bukulin
A                   E
Rock en roll rockin'
E
Rock en roll rockin'
D
iskulin bukulin
A                   E
Rock en roll rockin'
ref:
E
Magsusunog ng kilay
D
Buhok sa kilikili
A              E-A(hold)
sunog bigote...
[fin]
Tap to rate this tab
 
# A B C D E F G H I J K L M N O P Q R S T U V W X Y Z