Song name
# A B C D E F G H I J K L M N O P Q R S T U V W X Y Z

Rocksteddy - Leslie tab

-----------------------------------------------------------------------------
			     LESLIE - Rocksteddy
-----------------------------------------------------------------------------
Tabbed by: Jomar Ebuenga
Email: th0inkz@yahoo.com

Tuning: Standard

e|--------12----------12----------------------------------------|
B|-----------14-12-12----14~~-14\-------------------------------|
G|--12/14-------------------------------------------------------|
D|--------------------------------------------------------------|
A|--------------------------------------------------------------|
E|--------------------------------------------------------------|

e|--10p9--------------------------------------------------------|
B|-------10-----------------------------------------------------|
G|----------9-7p6-7p6-------------------------9~~---------------|
D|--------------------7p6-7--7-9/11-9~--7-9/11------------------|
A|--------------------------------------------------------------|
E|--------------------------------------------------------------|

e|--------------------------------------------------------------|
B|--10-9h10p9------15-14h15p14----------------------------------|
G|------------11~~-------------16~~--16^18v16p14-16-------------|
D|--------------------------------------------------14-14-------|
A|--------------------------------------------------------------|
E|--------------------------------------------------------------|

e|-----------16-19p16-------------------------------------17~---|
B|--------17----------17-----------------15--15--15--15---------|
G|-----16----------------16-----------14---14--14--14--14-------|
D|--14----------------------14-----16---------------------------|
A|------------------------------17------------------------------|
E|--------------------------------------------------------------|




************************************

| /   slide up
| \   slide down
| h   hammer-on
| p   pull-off
| ~   vibrato
| ^   Bend
| v   Release

************************************
Tap to rate this tab
# A B C D E F G H I J K L M N O P Q R S T U V W X Y Z