Song name
# A B C D E F G H I J K L M N O P Q R S T U V W X Y Z

Rocksteddy - Ayos Lang Ako tab

Band / Artist: Rocksteddy
Title: Ayos Lang Ako
Tabbed by: NaPoleon07
Legend:
. =palm mute
/\=slide
* =harmonic
h =hammer
p =pull off
b =bend
~ =let it ring
x =dead string

Intro:
    F#m-E
e--------------------------------------------------------|
B--------------------------------------------------------|
G----------2----------------1h2p1--1---------------------|
D------4-----4------------2----------2-------------------|(repeat 2x)
A----4---4-----4--------2--------------------------------|
E--2-------------0~---0----------------------------------|
   . .   . . . .      . . .        . .

Then do this chords.

e-----------------------------------------------------------------------|
B-----------------------------------------------------------------------|
G---------------7-6-----------------------------------------------------|
D--7x-7x-7x7~---7-6--9-5~---4x-4x-4x4~---5x-5x-5x--5-7-9-7~-------------|
A--7x-7x-7x7~---5-4--9-5~---4x-4x-4x4~---5x-5x-5x--5-7-9-7~-------------|
E--5x-5x-5x5~--------7-3~---2x-2x-2x2~---3x-3x-3x--3-5-7-5~-------------|

(Drum beat)

Please rate & enjoy! Thankyou!
Tap to rate this tab
 
# A B C D E F G H I J K L M N O P Q R S T U V W X Y Z