Song name
# A B C D E F G H I J K L M N O P Q R S T U V W X Y Z

Rocksteddy - Leslie tab

Leslie tab :)

by : Rocksteddy (one of my most fave pinoy band)

tabbed by : llew kent parmis-lugo

legend : s - slide to
         x - palm mute
         t - tap
         r - release

Intro :
e~ -5s7-12-9-7-9-9s12-9- + -7--7---------------------- + ------------------------------|
B~ --------------------- + --10-10-10-10-9-9-7--5-7-5- + ------------------------------|
G~ --------------------- + ----------9--9-9----------- + -6-7-6------------------------|
D~ --------------------- + --------------------------- + ------4-4s7-7-4-6-6s9-4-2-4-2-|
A~ --------------------- + --------------------------- + ------------------------------|
E~ --------------------- + --------------------------- + ------------------------------|

e~ ----------------------|
B~ ----------------------|
G~ ----4---6---7-6-9-6-9-|
D~ -4-6-6-7-7-9-9--------|
A~ ----------------------|
E~ ----------------------|


verse :
 1st part is "X" : A-F#m-G-E-
 2nd part

      xx   xx      xx        xx   xx      xx
e~ -------------------------------------------------|
B~ -------------------------------------------------|
G~ ---------------------7-6--------------------7-6--|
D~ -7-77-7-77-7x-7-77-7----7-44-4-44-4x-4-44-4----7-|
A~ -7-77-7-77-7x-7-77-7------44-4-44-4x-4-44-4------|
E~ -5-55-5-55-5x-5-55-5------22-2-22-2x-2-22-2------|

    xx   xx      xx   xx   xx      xx
e~ -55-5-55-5x-5-55-5-77-7-77-7x-7-77-7--------------|
B~ -77-7-77-7x-7-77-7-99-9-99-9x-9-99-9-9t10-9-7t9-9-|
G~ -77-7-77-7x-7-77-7-99-9-99-9x-9-99-9-9t10-9-7t9-9-|
D~ --------------------------------------------------|
A~ --------------------------------------------------|
E~ --------------------------------------------------|

        x    x    xx   xx   x       x      x    xx   x
e~ ------------------------------------------------------|
B~ ------------------------------------------------------|
G~ ------------------------------------------------------|
D~ -7-7-7-7x-7-7x-77-7-77-7-7-7-4-4-4-4-4x-4-4x-44-4-4-4-|
A~ -7-7-7-7x-7-7x-77-7-77-7-7-7-4-4-4-4-4x-4-4x-44-4-4-4-|
E~ -5-5-5-5x-5-5x-55-5-55-5-5-5-2-2-2-2-2x-2-2x-22-2-2-2-|


e~ -10-10-10-10-10--10-----10-10-10-10-10s14-12-10-12-|
B~ ---------------10--10-12---------------------------|
G~ ---------------------------------------------------|
D~ ---------------------------------------------------|
A~ ---------------------------------------------------|
E~ ---------------------------------------------------|

Chorus :
A-F#m-D-E-

Lead solo :

e~ -5s7-12-9-7-9-9s12-9h-9- + -10r9----------------------------|
B~ ------------------------ + -----t10-------------------------|
G~ ------------------------ + --------t9-6---6-4t6-4-2-4s6-6s9-|
D~ ------------------------ + ------------7t9-7----------------|
A~ ------------------------ + ---------------------------------|
E~ ------------------------ + ---------------------------------|

e~ ----------9s10-9-7-7-7t9-5t7-7----|
B~ 9s10-9-7-7--------------------5-5-|( and my own scala which i can't share :P 
G~ ----------------------------------|  haha kayo na magsipra nyan !!)
D~ ----------------------------------|
A~ ----------------------------------|
E~ ----------------------------------|
          just leave some comments after viewing :D
tnx po mga dudes !!

NEED a lead guitarist ??
tell lng me ... den ibi2gay ko numbr and email-ad ko .... :))
Tap to rate this tab
 
# A B C D E F G H I J K L M N O P Q R S T U V W X Y Z