Song name
# A B C D E F G H I J K L M N O P Q R S T U V W X Y Z

Rocksteddy - Magpakailanman tab

Nemesis_9113

Rocksteddy
Magpakailanman

Enjoy!!!


e|-----------------------------------------------------------------------------|
B|-----15/17~--15-14-15-15/17-17~--15-14-15-14-12------------------------------|
G|--/14-------------------------------------------14-14/16-16\9-9-9/11-9~------|
D|-----------------------------------------------------------------------------|
A|-----------------------------------------------------------------------------|
E|-----------------------------------------------------------------------------|


e|--------------------------------------------------------14~---14-17-17/19-19~-|
B|---------------------------------------------------14-17----17----------------|
G|----------------------------------------------14-16---------------------------|
D|--12-13-12-12/14---------------------14--14-16--------------------------------|
A|-----------------12-14-14/16~--14-16---16-------------------------------------|
E|------------------------------------------------------------------------------|

Pls rate...
Tap to rate this tab
# A B C D E F G H I J K L M N O P Q R S T U V W X Y Z