Song name
# A B C D E F G H I J K L M N O P Q R S T U V W X Y Z

Rocksteddy - Matututuhan Mo Rin tab

Song Title:    Matututuhan Mo Rin
Artist/ Band:  Rocksteddy
Tabbed By:     Pauz Prima ( primesenthyx@yahoo.com)

------------------------------------------------------------------------------------------

INTRO: D-A-G-A

|--------------------------------------------------------------------------|
|-//7~~-7-8-10----------/7-8-10-10/12-10~~-8po7----------------------------|
|--------------7-7/9~~--------------------------9--7-7-7/9~~-7---------7~~-|
|--------------------------------------------------------------9-7-7-9-----|
|--------------------------------------------------------------------------|
|--------------------------------------------------------------------------|

VERSE 1: D-A-G-A

REFRAIN: Em-A (2x) Em-G-A

CHORUS: D-A-G-A

INTERLUDE: D-A-G-A

|--------------------------------------------------------------------------|
|-//7~~-7-8-10----------/7-8-10-10/12-10~~-8po7----------------------------|
|--------------7-7/9~~--------------------------9--7-7-7/9~~-7---------7~~-|
|--------------------------------------------------------------9-7-7-9-----|
|--------------------------------------------------------------------------|
|--------------------------------------------------------------------------|

VERSE 2: D-A-G-A

|-----------------|-10--10-12po10-12br10~~-|---------------------|
|-10~~------------|-10--10-----------------|-5/7-7-7\5---5-3/5~~-|
|-9~~~-9\7-9br7~~-|------------------------|-----------7---------|
|-----------------|------------------------|---------------------|
|-----------------|------------------------|---------------------|
|-----------------|------------------------|---------------------|

REFRAIN: Em-A (2x) Em-G-A

CHORUS: D-A-G-A - (A)

ADLIB: D-A-G-A-Em-D-G-Em-D-G-A--

|-----------------------------------------------------------------------------|
|--------/7-8-10----------/7-8-10-10/12-10~~-8--7-8-7----7h8-7-----------10~~-|
|-//7~~----------7-7/9~~------------------------------7~-------7~-9-9/11------|
|-----------------------------------------------------------------------------|
|-----------------------------------------------------------------------------|
|-----------------------------------------------------------------------------|

|----12----12/17-15~-14~-14h15po14-----17b-17-15-14-14h15-------------------------------------|
|-10----10-------------------------15~--------------------17~~--------13-13h15----------------|
|---------------------------------------------------------------16-16----------14b-14po12h14~-|
|---------------------------------------------------------------------------------------------|
|---------------------------------------------------------------------------------------------|
|---------------------------------------------------------------------------------------------|

|----------------------------------------------------------------------|
|----------------------------------------------------------------------|
|-12-11-11h12po11--------------------------------------------12~~-12\\-|
|-----------------14-12-14/16-14\12----------------12--14-14-----------|
|-----------------------------------14po12----12h14--------------------|
|------------------------------------------14--------------------------|

|-------------------14h15-17-17b~~--14b~~--------------------------------------------------------|
|-------12h13-15/17------------------------17po15-17b~~--17po15-14-14h15-15~-14h15po14-------15~~|
|-12h14--------------------------------------------------------------------------------16-14-----|
|------------------------------------------------------------------------------------------------|
|------------------------------------------------------------------------------------------------|
|------------------------------------------------------------------------------------------------|

CHORUS: D-A-G-A (fade out)

/ - slide up
\ - slide down
~ - vibrato (let ring)
b - bend
br - bend/release
po - pulloff


pakirate po..salamat! :D
--------------------------------------------------------------------------------------------------

> SenthyX Zone
> Senthyx Band
Tap to rate this tab
# A B C D E F G H I J K L M N O P Q R S T U V W X Y Z