Song name
# A B C D E F G H I J K L M N O P Q R S T U V W X Y Z

Rocksteddy - Lagi Mo Na Lang Akong Dinededma tab

Help us improve GuitareTab! Take a short survey!
Title: Lagi Mo Na Lang Akong Dinededma
Artist: Rocksteddy
Album: Tsubtsatagilidakeyn
Transcribed by: Dave Mac
E-mail: satchboogie314@yahoo.com


/ = slide up
\ = slide down
h = hammer on
p = pull-off
x = dead string
P.M. = palm mute
b = bend
r = release


Verse 1: (distorted with palm mute)

   D               G                   D/F#            G

e|---------------|-------------------|---------------|-----------------|
B|---------------|-------------------|---------------|-----------------|
G|---------------|-------------------|---------------|-----------------|
D|-7-7-7-7-7-7-7-|-------------------|---------------|-----------------|
A|-5-5-5-5-5-5-5-|-5-5-5-5-5-5-5-5-5-|-5-5-5-5-5-5-5-|-5-5-5-5-5-5-5-5-|
E|---------------|-3-3-3-3-3-3-3-3-3-|-2-2-2-2-2-2-2-|-3-3-3-3-3-3-3-3-|

   D               G                   D/F#            G

e|---------------|-------------------|---------------|-----------------|
B|---------------|-------------------|---------------|-----------------|
G|---------------|-------------------|---------------|-----------------|
D|-7-7-7-7-7-7-7-|-------------------|---------------|-----------------|
A|-5-5-5-5-5-5-5-|-5-5-5-5-5-5-5-5-5-|-5-5-5-5-5-5-5-|-5---------------|
E|---------------|-3-3-3-3-3-3-3-3-3-|-2-2-2-2-2-2-2-|-3---------------|


(distorted without palm mute)
 
   D               G                   D/F#            G

e|---------------|-------------------|---------------|-----------------|
B|---------------|-------------------|---------------|-----------------|
G|-7-7-7-7-7-7-7-|-------------------|---------------|-----------------|
D|-7-7-7-7-7-7-7-|-5-5-5-5-5-5-5-5-5-|---------------|-5-5-5-5-5-5-5-5-|
A|-5-5-5-5-5-5-5-|-5-5-5-5-5-5-5-5-5-|-5-5-5-5-5-5-5-|-5-5-5-5-5-5-5-5-|
E|---------------|-3-3-3-3-3-3-3-3-3-|-2-2-2-2-2-2-2-|-3-3-3-3-3-3-3-3-|

   D               G                   D/F#            G

e|---------------|-------------------|---------------|-----------------|
B|---------------|-------------------|---------------|-----------------|
G|-7-7-7-7-7-7-7-|-------------------|---------------|-----------------|
D|-7-7-7-7-7-7-7-|-5-5-5-5-5-5-5-5-5-|---------------|-5-5-5-5-5-5-5-5-|
A|-5-5-5-5-5-5-5-|-5-5-5-5-5-5-5-5-5-|-5-5-5-5-5-5-5-|-5-5-5-5-5-5-5-5-|
E|---------------|-3-3-3-3-3-3-3-3-3-|-2-2-2-2-2-2-2-|-3-3-3-3-3-3-3-3-|


Refrain:
  
   Em       F#m      G            Em       F#m      G   D/F# G   D/F#  G       A

e|----0---|----3---|---3---3--3-|----0---|----3---|----------------------------------------------|
B|----0---|----3---|---3---3--3-|----0---|----3---|----------------------------------------------|
G|--------|--------|------------|--------|--------|----------------------------------------------|
D|--------|--------|------------|--------|--------|----------------------------7-7-7-7-7-7-7-7-7-|
A|--------|--------|------------|--------|--------|-5-5-5----5-5-5-----5-5-5---7-7-7-7-7-7-7-7-7-|
E|-0------|-2------|-3----------|-0------|-2------|-3-3-2----3-3-2-----3-3-2---5-5-5-5-5-5-5-5-5-|


Chorus:

   D            Bm           A            G

e|------------|------------|------------|------------|
B|------------|------------|------------|------------|
G|-7--7--7--7-|------------|------------|------------|
D|-7--7--7--7-|-9--9--9--9-|-7--7--7--7-|-5--5--5--5-|
A|-5--5--5--5-|-9--9--9--9-|-7--7--7--7-|-5--5--5--5-|
E|------------|-7--7--7--7-|-5--5--5--5-|-3--3--3--3-|  REPEAT 4 TIMES


Interlude:

   D            Bm           A            G

e|------------|------------|------------|------------|
B|------------|------------|------------|------------|
G|-7--7--7--7-|------------|------------|------------|
D|-7--7--7--7-|-9--9--9--9-|-7--7--7--7-|-5--5--5--5-|
A|-5--5--5--5-|-9--9--9--9-|-7--7--7--7-|-5--5--5--5-|
E|------------|-7--7--7--7-|-5--5--5--5-|-3--3--3--3-|


Verse 2: (P.M.)

   D               G                   D/F#            G

e|---------------|-------------------|---------------|-----------------|
B|---------------|-------------------|---------------|-----------------|
G|---------------|-------------------|---------------|-----------------|
D|-7-7-7-7-7-7-7-|-------------------|---------------|-----------------|
A|-5-5-5-5-5-5-5-|-5-5-5-5-5-5-5-5-5-|-5-5-5-5-5-5-5-|-5-5-5-5-5-5-5-5-|
E|---------------|-3-3-3-3-3-3-3-3-3-|-2-2-2-2-2-2-2-|-3-3-3-3-3-3-3-3-|

   D               G                   D/F#            G

e|---------------|-------------------|---------------|-----------------|
B|---------------|-------------------|---------------|-----------------|
G|---------------|-------------------|---------------|-----------------|
D|-7-7-7-7-7-7-7-|-------------------|---------------|-----------------|
A|-5-5-5-5-5-5-5-|-5-5-5-5-5-5-5-5-5-|-5-5-5-5-5-5-5-|-5---------------|
E|---------------|-3-3-3-3-3-3-3-3-3-|-2-2-2-2-2-2-2-|-3---------------|


Not P.M.

   D               G                   D/F#            G

e|---------------|-------------------|---------------|-----------------|
B|---------------|-------------------|---------------|-----------------|
G|-7-7-7-7-7-7-7-|-------------------|---------------|-----------------|
D|-7-7-7-7-7-7-7-|-5-5-5-5-5-5-5-5-5-|---------------|-5-5-5-5-5-5-5-5-|
A|-5-5-5-5-5-5-5-|-5-5-5-5-5-5-5-5-5-|-5-5-5-5-5-5-5-|-5-5-5-5-5-5-5-5-|
E|---------------|-3-3-3-3-3-3-3-3-3-|-2-2-2-2-2-2-2-|-3-3-3-3-3-3-3-3-|

   D               G                   D/F#            G

e|---------------|-------------------|---------------|-----------------|
B|---------------|-------------------|---------------|-----------------|
G|-7-7-7-7-7-7-7-|-------------------|---------------|-----------------|
D|-7-7-7-7-7-7-7-|-5-5-5-5-5-5-5-5-5-|---------------|-5-5-5-5-5-5-5-5-|
A|-5-5-5-5-5-5-5-|-5-5-5-5-5-5-5-5-5-|-5-5-5-5-5-5-5-|-5-5-5-5-5-5-5-5-|
E|---------------|-3-3-3-3-3-3-3-3-3-|-2-2-2-2-2-2-2-|-3-3-3-3-3-3-3-3-|



Refrain:
  
   Em       F#m      G            Em       F#m      G   D/F# G   D/F#  G       A

e|----0---|----3---|---3---3--3-|----0---|----3---|----------------------------------------------|
B|----0---|----3---|---3---3--3-|----0---|----3---|----------------------------------------------|
G|--------|--------|------------|--------|--------|----------------------------------------------|
D|--------|--------|------------|--------|--------|----------------------------7-7-7-7-7-7-7-7-7-|
A|--------|--------|------------|--------|--------|-5-5-5----5-5-5-----5-5-5---7-7-7-7-7-7-7-7-7-|
E|-0------|-2------|-3----------|-0------|-2------|-3-3-2----3-3-2-----3-3-2---5-5-5-5-5-5-5-5-5-|


Chorus:

   D            Bm           A            G

e|------------|------------|------------|------------|
B|------------|------------|------------|------------|
G|-7--7--7--7-|------------|------------|------------|
D|-7--7--7--7-|-9--9--9--9-|-7--7--7--7-|-5--5--5--5-|
A|-5--5--5--5-|-9--9--9--9-|-7--7--7--7-|-5--5--5--5-|
E|------------|-7--7--7--7-|-5--5--5--5-|-3--3--3--3-| REPEAT 4 TIMES


Guitar Solo:

                D           Bm             A                G
             
e|------------|------------------------------------------------------|
B|--15-15--15-|----------------15-15---------------------------------|
G|------------|-14--11-12-/14--------12-12/14--12-11-12--------------|
D|------------|------------------------------------------12/14-12-12-|
A|------------|------------------------------------------------------|
E|------------|------------------------------------------------------|

  D                Bm           A                                 G

e|------------------------------------------14-17/19-14--------------------------|
B|-10/12-8-------------------------------15-------------15-----------------------|
G|---------7/9-7----------------------14-------------------14--------------------|
D|---------------7/9-7-9-7---------16-------------------------16--------------12-|
A|------------------------------14-------------------------------12h14-12-14-----|
E|-------------------------------------------------------------------------------|

  D                         Bm                                                  A   

e|-----------------------------------------12h15-----------14h15h17p15p14----------|
B|-----------------------------------12h14--------14h15h17----------------17-15-17-|
G|-----------------------------11h14-----------------------------------------------|
D|-0----------12h14h16p1412-12-----------------------------------------------------|
A|---12h14h17----------------------------------------------------------------------|
E|---------------------------------------------------------------------------------|

         G                    D             Bm                        A

e|--------------------------|--------------------------------------------|
B|-17b19-17b9-17-15~~~~-----|--------------------------------------------|
G|--------------------------|-14b16--r14p12-14-12--11-11h12p11-----------|
D|-----------------------14-|-----------------------------------14-12-14-|
A|--------------------------|--------------------------------------------|
E|--------------------------|--------------------------------------------|

   G                                     Em

e|--------------------14-17t22p17------------------------|
B|-----------------15-------------15-----15b17-r15-15~~~-|
G|-14p11--------14-------------------14------------------|
D|-----------16------------------------------------------|
A|--------14---------------------------------------------|
E|-------------------------------------------------------|


Refrain:


   Em       F#m      G            Em       F#m      G   D/F#  G   D/F#  G   D/F#  G   D/F#  G   D/F#   G   D/F#

e|----0---|----3---|---3---3--3-|----0---|----3---|----------------------------------------------------------|
B|----0---|----3---|---3---3--3-|----0---|----3---|----------------------------------------------------------|
G|--------|--------|------------|--------|--------|----------------------------------------------------------|
D|--------|--------|------------|--------|--------|----------------------------------------------------------|
A|--------|--------|------------|--------|--------|-5-5-5-----5-5-5-----5-5-5-----5-5-5-----5-5-5------5-5-5-|
E|-0------|-2------|-3----------|-0------|-2------|-3-3-2-----3-3-2-----3-3-2-----3-3-2-----3-3-2------3-3-2-|

   A

e|-------------------|
B|-------------------|
G|-------------------|
D|-7-7-7-7-7-7-7-7-7-|
A|-7-7-7-7-7-7-7-7-7-|
E|-5-5-5-5-5-5-5-5-5-|


Chorus:

   D            Bm           A            G

e|------------|------------|------------|------------|
B|------------|------------|------------|------------|
G|-7--7--7--7-|------------|------------|------------|
D|-7--7--7--7-|-9--9--9--9-|-7--7--7--7-|-5--5--5--5-|
A|-5--5--5--5-|-9--9--9--9-|-7--7--7--7-|-5--5--5--5-|
E|------------|-7--7--7--7-|-5--5--5--5-|-3--3--3--3-|  REPEAT 3 TIMES

   D            Bm           A            G

e|------------|------------|------------|------------|
B|------------|------------|------------|------------|
G|-7--7--7--7-|------------|------------|------------|
D|-7--7--7--7-|-9--9--9--9-|-7--7--7--7-|-5--5--5--5-|
A|-5--5--5--5-|-9--9--9--9-|-7--7--7--7-|-5--5--5--5-|
E|------------|-7--7--7--7-|-5--5--5--5-|-3--3--3--3-

   D

e|------------|
B|------------|
G|-7----------|
D|-7----------|
A|-5----------|
E|------------|


Comments, suggestions, corrections pls. email me at:

satchboogie314@yahoo.com

add my friendster account: pgdavepg@yahoo.com














Related for Lagi Mo Na Lang Akong Dinededma tab