Song name
# A B C D E F G H I J K L M N O P Q R S T U V W X Y Z

Rocksteddy - Smile At Me tab

TuNiNG: sTAndARd

iNTRo:
g/d/Em/C - cLeAN tONE

uNG mGA aDLiB d2 aT mga vRsE at cHoRus aT mga soLo aY nKa diSTorSion

soLo iNTRo:
]--0-333-2-3-5-777-5-3-5-77--1010---------------------|
]-----------------------------------------------------|
]-----------------------------------------------------|
]-----------------------------------------------------|
]-----------------------------------------------------|
]-----------------------------------------------------|

vERsE1:

]-----------------------------------------------------|
]-----------------------------------------------------|
]-----------------------------------------------------|
]------------77777777--99999999--55555555-------------|
]--55555555--55555555--77777777--33333333-------------|
]--33333333-------------------------------------------|

pA bReAk LnG uNG sTRum.,
pRaNG iPa PaLM muTE nYu LnG..

ReFRAiN:

]-----------------------------------------------------|
]-----------------------------------------------------|
]-----------------------------------------------------|
]------------77777777--99999999--55555555-------------|
]--55555555--55555555--77777777--33333333-------------|
]--33333333-------------------------------------------|

d2 diRi diRiTsO LnG
TaZ i2 uNG AdLiB sA ReFRAiN,

]-----3--|-----3--|-----3----------------------------|
]--3-3---|--3-3---|--3-3-----------------------------|
]---3----|---3----|---3------------------------------|
]--------|--------|----------------------------------|
]--------|--------|----------------------------------|
]--------|--------|----------------------------------|

di aQ mXaDo xUR sA aDLiB nYAn ahH., kYA wAk kAu mGAgaLiT xKiN...

cHoRuS:
]-----------------------------------------------------|
]-----------------------------------------------------|
]-----------------------------------------------------|
]--77777777--44444444--66666666-----------------------|
]--55555555--22222222--44444444--77777777-------------|
]--------------------------------55555555-------------|

2x uULiTiN yUNG cHoRuS

aDLiB sA cHoRus

]--33333333--55555555--77777777--55555555-------------|
]-----------------------------------------------------|
]-----------------------------------------------------|
]-----------------------------------------------------|
]-----------------------------------------------------|
]-----------------------------------------------------|

]--33333333--55555555--77777777--888888888--55555555--333333--------|
]-------------------------------------------------------------------|
]-------------------------------------------------------------------|
]-------------------------------------------------------------------|
]-------------------------------------------------------------------|
]-------------------------------------------------------------------|

SoLo1:
]-0-333-2-3-5-7-5-3-777-5-3-5-77-1010-|
]-------------------------------------|
]-------------------------------------|
]-------------------------------------|
]-------------------------------------|
]-------------------------------------|

]-12-151515-14-15-17-191919-17-15-17-2222-|
]-----------------------------------------|
]-----------------------------------------|
]-----------------------------------------|
]-----------------------------------------|
]-----------------------------------------|

(di aq mxadong sure sa solo ahh.. version q lng toh pero pde ng pagtsagaan)

veRSe2:
]-----------------------------------------------------|
]-----------------------------------------------------|
]-----------------------------------------------------|
]------------77777777--99999999--55555555-------------|
]--55555555--55555555--77777777--33333333-------------|
]--33333333-------------------------------------------|

d2 RiN pA BreAK LnG uNG sTruMminG...
-=((pALm mUTe))=-

ReFRAiN:
]-----------------------------------------------------|
]-----------------------------------------------------|
]-----------------------------------------------------|
]------------77777777--99999999--55555555-------------|
]--55555555--55555555--77777777--33333333-------------|
]--33333333-------------------------------------------|

aDLiB iN ReFRAiN:
]------3--|------3--|------3----------------------------|
]--3--3---|--3--3---|--3--3-----------------------------|
]----3----|----3----|----3------------------------------|
]---------|---------|-----------------------------------|
]---------|---------|-----------------------------------|
]---------|---------|-----------------------------------|

cHoRus:
]-----------------------------------------------------|
]-----------------------------------------------------|
]-----------------------------------------------------|
]--77777777--44444444--66666666-----------------------|
]--55555555--22222222--44444444--77777777-------------|
]--------------------------------55555555-------------|


]-----------------------------------------------------|
]-----------------------------------------------------|
]-----------------------------------------------------|
]--77777777--44444444--66666666-----------------------|
]--55555555--22222222--44444444--77777777-------------|
]--------------------------------55555555-------------|

4x nMn uULiTiN uNG cHoRus

aDLiB uLiT sA cHoRus

]--33333333--55555555--77777777-8-7--55555------------|
]-----------------------------------------------------|
]-----------------------------------------------------|
]-----------------------------------------------------|
]-----------------------------------------------------|
]-----------------------------------------------------|


]--33333333--55555555--77777777--888888888--|
]-------------------------------------------|
]-------------------------------------------|
]-------------------------------------------|
]-------------------------------------------|
]-------------------------------------------|


]--33333333--55555555--77777777-8-7--55555------------|
]-----------------------------------------------------|
]-----------------------------------------------------|
]-----------------------------------------------------|
]-----------------------------------------------------|
]-----------------------------------------------------|


]--33333333--55555555--77777777--888888888--55555555--333333--------|
]-------------------------------------------------------------------|
]-------------------------------------------------------------------|
]-------------------------------------------------------------------|
]-------------------------------------------------------------------|
]-------------------------------------------------------------------|

OuTRo:
]--33333333--55555555--77777777-8-7--55555------------|
]-----------------------------------------------------|
]-----------------------------------------------------|
]-----------------------------------------------------|
]-----------------------------------------------------|
]-----------------------------------------------------|

]--33333333--55555555--77777777--5555555--4-2~--------|
]-----------------------------------------------------|
]-----------------------------------------------------|
]-----------------------------------------------------|
]-----------------------------------------------------|
]-----------------------------------------------------|

TaZ tAtApUsiN Nyu uNG soNG w/ G cHoRD..

]--3---|
]--3---|
]------|
]------|
]--2---|
]--3---|

sO ThaT's iT!
sANa maTuwA kAu! (^_^) hEhEh..

kuNG di nYu maGeTzZ o di nYu mAkuHA,

pAtUGTuGiN nYu uNG soNG TaZ tsAka nYu

sABaYAn nG tiPA hEhEh... TaZ

adD nYu nRiN aQ sA FRiENdsTeR
" guitariztah_a_mir@yahoo.com "

pRa kuNG mY TnUNg kAu xKiN..,

sENdAn nYu nLanG aQ ng msG duN oKI?!

ngpapasalamat nga pla aq sa lhat ng bumubuo ng


'TRiKeRzZ'


at ng


'MeTaLMoDE'

at sa mga kbandm8s q
sa wLang sawang pg Unawa nla sakin
kng di man aq mka attend ng praktiz nMin.... hEhEH
Tap to rate this tab
# A B C D E F G H I J K L M N O P Q R S T U V W X Y Z