Song name
# A B C D E F G H I J K L M N O P Q R S T U V W X Y Z

Rocksteddy - Kung Wala Na Tayo tab

Help us improve GuitareTab! Take a short survey!
Kung Wala Na Tayo

Rocksteddy

|---------------------------------------------------|
|   '&'                                             |
|    #                                              |
|    #     Tabbed by Don Michael Acelar De Leon     |
|   _#_    Seventeen na ako!!!                      |
|  ( # )                                            |
|  / O \   donmichael001@yahoo.com                  |
| ( === )                                           |
|  `---'                                            |
|---------------------------------------------------|


Standard Tuning, |EADGBE|


Guitar 1--Rhythm, Crank Distortion
Guitar 2--Lead, "Juven Pelingon" tone (very sweet distortion, slight phaser)


Intro

*Drum Beat*


Guitar 1

  G   D  Bm   C
|-x~--x---x~--x~---|
|-x~--x---x~--x~---|
|-x~--7~--4~--5~---|
|-5~--7~--4~--5~---|
|-5~--5~--2~--3~---|
|-3~---------------|

Guitar 2

        G    D          Bm       C
|--------------------------------------|
|------------15~~---13-12--13h15-13~~--|
|-------12~~---------------------------|
|-12h14--------------------------------|
|--------------------------------------|
|--------------------------------------|

        G    D          Bm           C
|-----------------------------------------|
|-----------------------------------------|
|-------12~~-14~~-12-11~------------------|
|-12h14------------------(p.h.12b14)-12~~-|  p.h.:pinch harmonic
|-----------------------------------------|
|-----------------------------------------|

        G    D         Bm     C
|----------------------------------------|
|------------15~~--13-12-13s20~~---------|
|-------12~~-----------------------------|
|-12h14----------------------------------|
|----------------------------------------|
|----------------------------------------|

  G                     D       Bm        C
|-------------------------------------------------|
|-19h20p19h20p19h20p19/-7~-8-10-----------8~~~//--|
|-------------------------------5s7~~-5-7---------|
|-------------------------------------------------|
|-------------------------------------------------|
|-------------------------------------------------|

Main Verse Riff

"Matagal-tagal na rin tayong..."

Guitar 2

|------------------------------------|
|------------------------------------|
|------------------------------------| 	(palm muted)
|-----5-------7--------5------5------|
|---------0-5---5--0-2---0-3~~--3-0--|
|-3-3--------------------------------|

Strumming Part

  G   D  Bm   C
|-x~--x---x~--x~---|
|-x~--x---x~--x~---|
|-x~--7~--4~--5~---|
|-5~--7~--4~--5~---|
|-5~--5~--2~--3~---|
|-3~---------------|


Refrain

"Kung magtatagal ba..."

  Am      C
|-x~------x--------|
|-x~------x--------|
|-x~------5--------|
|-7~------5--------|
|-7~------3--------|
|-5~---------------|

Chorus

"Kung wala na tayo..."

Guitar 1 and Guitar 2

  G   D  Bm   C  G  F# Em C
|-x~--x---x~--x~--------------|
|-x~--x---x~--x~----------3~--|
|-x~--7~--4~--5~----------0~--|
|-5~--7~--4~--5~-5~-4~-2~-2~--| (repeat)
|-5~--5~--2~--3~-x~-x~-2~-3~--|
|-3~-------------3~-2~-0~-x---|


Verse Riff

Chorus

Guitar Solo

Guitar 1 - Do verse Chords

Guitar 2

Sweep Attack

|-17p14---------------14-17p14----------------15-19p15-----------15-17-19p15--------|
|-------15------17-17----------15------17-17-----------17-----17-------------17-----|
|----------14~--------------------14~---------------------16~-------------------16~-|
|-----------------------------------------------------------------------------------|
|-----------------------------------------------------------------------------------|
|-----------------------------------------------------------------------------------|

|-------19-19-22p19---------------19-22p19------------------------------------------|
|-19-20-------------20------22-22----------20-----22-22-22b24r22-20~~~/-------------|
|----------------------19~--------------------19~-----------------------------------|
|-----------------------------------------------------------------------------------|
|-----------------------------------------------------------------------------------|
|-----------------------------------------------------------------------------------|

|------------------------------------|
|-17b19r17-15/-----------------------|
|---------------(p.h.14b16r14)-12~~/-|
|------------------------------------|
|------------------------------------|
|------------------------------------|

|--------------------------------------------------------------------------------------|
|--------------------------------------------------------------------------------------|
|---------------------------------------------------------(p.h.0)-*depress-tremolo-bar-|
|--------------------14~~-----------10h14p12p10----------------------------------------|
|--14h15h17-14h15h17-------10h12h14-------------14p12p10~~-----------------------------|
|--------------------------------------------------------------------------------------|

Shuffle Strumming Effect

|------------------------------|
|-12-12--12--12-12-12-12-12-12-|
|-12-12-(14)-12-12-14-12-14-12-| repeat
|-12-12--12--12-12-12-12-12-12-|
|------------------------------|
|------------------------------|

|--------12-----15p12-------------------|
|-----------12--------15-15-12----------|
|-14b16~~----------------------14-12~~/-|
|---------------------------------------|
|---------------------------------------|
|---------------------------------------|

And the monster run

|-------------------------------------------------------------------------------------------------------------22b24~~-|
|-------------------------------------------------------------------------------20-20-20-18-17--22-22-20-19-----------|
|------------------------------------------------------------------19-19-17-16----------------------------------------|
|---------------------------13-----------17-17-15-15--19-19-17-16-----------------------------------------------------|
|--------------15-14-13-14-----15-15-14-------------------------------------------------------------------------------|
|-15-14-13-12---------------------------------------------------------------------------------------------------------|


|-20p19-20~~~//--|
|----------------|
|----------------|
|----------------|
|----------------|
|----------------|

*pull the tremolo bar on the 22b24~~ to reach the high E note

Whew. Juven is a shred god.

"Paano na na na kaya..."

  Am  C
|-x---x----|
|-x---x----|
|-x---x----|
|-7~--5~---|
|-7~--5~---|
|-5~--3~---|

then

|-x-----|
|-x-----|
|-7~-7/-|
|-7~-7/-| *break*
|-5~-5/-|
|-------|

"Kung wala na tayo..."

Clean

|-3--3--3--3--3--3--3--3---|
|-3--3--3--3--3--3--3--3---|
|-0--2--2--0--0--0--0--0---|
|-0--0--x--x--0--0--2--x---|
|-x-----2--3--x--x--2--3---|
|-3-----------3--2--0------|

Enter Guitar 2 before Chorus

|-----------------------------|
|-----------------------------|
|-------------------------5~--|
|---------------------2~--5~--|
|---------------------2~--3~--|
|--3~~-3-3--2~~--2-2--0~------|


Chorus


Outro

|-----------------------------------------|
|-----8-----7-----5-----7-----(p.h.8)p7p5-|
|-7-7---7-7---7-7---7-7---7-7-------------| repeat 7 times, then
|-----------------------------------------|
|-----------------------------------------|
|-----------------------------------------|


|---------------0~~~----|
|-----8-----7---0~~~~---|
|-7-7---7-7---7---------| *slight tremolo flutter*
|-----------------------|
|-----------------------|
|-----------------------|


End in Em


October 25, 2006


Copyright 2006 by Don Michael Acelar De Leon. All Rights Reserved.
Related for Kung Wala Na Tayo tab