Song name
# A B C D E F G H I J K L M N O P Q R S T U V W X Y Z

Rocksteddy - Break Na Tayo tab

INTRO-
1.
Guitar1
e|-------------------------------------------------|
b|-------------------------------------------------|
g|-------------------------------------------------|
D|-------------------------------------------------|
A|----------------1--------------------3-4^5^------|
E|-1h33-1h33-1h33--3--33-1h33-1h33-1h33------------|

e|-------------------------------------------------|
b|-------------------------------------------------|
g|-------------------------------------------------|
D|-------------------------------------------------|hold
A|----------------1--------------------------------|
E|-1h33-1h33-1h33--3--33-1h33-1h33-1h33------/-----|

2.Gitara 2 pasok
Guitar1
e|-------------------------------------------------|
b|-------------------------------------------------|
g|-------------------------------------------------|
D|-------------------------------------------------|
A|----------------1--------------------3-4^5^------|
E|-1h33-1h33-1h33--3-33--1h33-1h33-1h33------------|

e|-------------------------------------------------|
b|-------------------------------------------------|
g|-------------------------------------------------|
D|-------------------------------------------------|hold
A|----------------1--------------------------------|
E|-1h33-1h33-1h33--3--33--1h33-1h33-1h33-----------|


Guiatr2
e|------------------------------|
b|------------------------------|
g|------------------------------|
D|-5~5~5~5~5~5~5~5~5~5~5~5~5~---|
A|-5~5~5~5~5~5~5~5~5~5~5~5~5~---|
E|-3~3~3~3~3~3~3~3~3~3~3~3~3~---|




G-D/F#-Bm-C

Guitar 1
e|-------------------------------------------------------------------|
b|-------------------------------------------------------------------|
g|--121212121212-111111--1414141414---11-s-11s-101010~---------------|
D|--xxxxxxxxxxxx-xxxxxx--xxxxxxxxxx---xx---x---xxxxxx~---------------|2x
A|--101010101010-999999--1212121212---10-s-9-s-101010~---------------|
E|-------------------------------------------------------------------|

e|------------------------------------------|
b|------------------------------------------|
g|------------------4444444--5555555--------|
D|-5555555-5555555--4444444--5555555--------|
A|-5555555-5555555--2222222--3333333--------|
E|-3333333-2222222--------------------------|

VERSE-
 pm 
e|---------------------------------------------------|
b|---------------------------------------------------|
g|------------------------44-4-44-44-55-5-55-55------|
D|-55-5-55-55-55-5-55-55--44-4-44-44-55-5-55-55------|
A|-55-5-55-55-55-5-55-55--22-2-22-22-33-3-33-33------|
E|-33-3-33-33-22-2-22-22-----------------------------|

G            D/F#
PARA BANG BISIKLETA
Bm          C        G
ANG KWENTO NATING DALAWA
          D/F#   E    C
UPOD NA PRENONG BMX
  pm ----------------------pm
e|-----------------------------------------------|
b|-----------------------------------------------|
g|----------------------------------5555555------|
D|-55-5-55-55-55-5-55-55----2-------5555555------|
A|-55-5-55-55-55-5-55-55----2-hold--3333333------|
E|-33-3-33-33-22-2-22-22----0--------------------|


 G  D/F#     Em    C
HUMAHARURUT PABABA
e|-------------------------------------|
b|-------------------------------------|
g|------------------------5555555------|
D|--555555-555555-2222222-5555555------|
A|--555555-555555-2222222-3333333------|
E|--333333-222222-0000000--------------|


REFRAIN-

 Guitars
e|---------------------------------------------|
b|---------------------------------------------|
g|---------------------------------------------|
D|-777~----999~-----101010~----121212~---------|
A|-777~----999~-----101010~----121212~---------|
E|-555~----777~-----8-8-8~-----101010~---------|

e|---------------------------------------------|
b|---------------------------------------------|
g|---------------------------------------------|
D|-777~----999~-----101010~----121212121212~---|
A|-777~----999~-----101010~----121212121212~---|
E|-555~----777~-----8-8-8~-----101010101010~---|

Am               Bm
SABI KO PAPALITAN KO
    C          D
BM7 KO NG BREAK
Am   Bm     C      D
KELANGAN NATING BREAK

chorus
BREAK NA TAYOG
BREAK,BREAK NA TAYO
BREAK NA TAYO
BREAK,BREAK NA TAYO

Guitar1

e|----------------------------------------------|
b|----------------------------------------------|
g|--------777777--444444---555555---------------|
D|-55555--777777--444444---555555---------------|2x
A|-55555--555555--222222---333333---------------|
E|-33333----------------------------------------|

Guitar2

e|----------------------------------------|
b|----------------------------------------|
g|--------777777----44444-555555-4/5/4----|
D|-55555--xxxxxx----xxxxx-xxxxxx-xxxxx----|2x
A|-xxxxx--555555----22222-333333-2/3/2----|
E|-33333----------------------------------|

Guitar2

Interlude

e|-------------------------------------------------|
b|-------------------------------------------------|
g|-------------------------------------------------|
D|-------------------------------------------------|
A|----------------1--------------------3-4^5^------|
E|-1h33-1h33-1h33--3--33-1h33-1h33-1h33------------|

e|-------------------------------------------------|
b|-------------------------------------------------|
g|-------------------------------------------------|
D|-------------------------------------------------|hold
A|----------------1--------------------------------|
E|-1h33-1h33-1h33--3--33-1h33-1h33-1h33--3/h10p\---|
CHORUS-


REPEAT REFRAIN CHORUS
g1
ADLIB-G5-D/F#5-B5-D5-C5-B5-A5-D5
g2
e|-------------------------------------------------------------|
b|------------------------------------------------12-----------|
g|-1212-----12------1212-----12------1212---12-------14-12-14^-|
d|-------14-----14-------14-----1414------14--14---------------|
A|-------------------------------------------------------------|
E|-------------------------------------------------------------|
-
e|-----------------------------------------------------------------|
b|-15^(17)^(17)---15-13--1212--12h13p12----------------------------|
g|--------------------------------------h1412---14-12-11h12p11-----|
d|-------------------------------------------------------------12^-|
A|-----------------------------------------------------------------|
E|-----------------------------------------------------------------|

e|----------------------------------------141514---15^17^15^---|
b|--------------------------------17^17^-----------------------|
g|----------------------12--14-12------------------------------|
d|----------------12-14----------------------------------------|
A|-10-12-10-12^14----------------------------------------------|
E|-------------------------------------------------------------|

e|--------------------------------------------------------|
b|-15--13-12-13-12----------------------------------------|
g|------------------1414-(di ko na kaya kasunod hehehe..)-|
d|--------------------------------------------------------|
A|--------------------------------------------------------|
E|--------------------------------------------------------|
di pa tapos  baka bukas meron na heheh

REPEAT CHORUS 4X
Tap to rate this tab
 
# A B C D E F G H I J K L M N O P Q R S T U V W X Y Z