Guitaretab - guitar tabs
Song name
# A B C D E F G H I J K L M N O P Q R S T U V W X Y Z

Rocksteddy - Nonstop Summer tab

===============================================================================
                               Nonstop Summer
                               (Rocksteddy)
===============================================================================

Tabbed by: Rodel F. Fariņas
Date: Oct. 3, 2007
Friendster account: rain_aien0502@yahoo.com
contact #: 09189055868/09196998754

Intro: A-D (2x)

e-----5---7-5---5---7-5--I
b--5---------5---------5-I
g------------------------I
d------------------------I
a------------------------I
E------------------------I
after this...pasok ang bass....

Base:

a------------------------------------------------------------------I
E------------------------5555555-1010101010-5555555-1010101010-----I
while playing bass, some adlib...here it is:

e--5--7-5------------5---7-5----------I
b-----------------5-------------------I
g---------6-4-/9-------------6-4-2----I
d-------------------------------------I
a-------------------------------------I
E-------------------------------------I

verse:

e-----------------------------------------------I
b-----------------------------------------------I
g-----------------------------------------------I
d---7777777--1212121212--7777777--1212121212----I
a---7777777--1212121212--7777777--1212121212----I
E---5555555--1010101010--5555555--1010101010----I
   I always..been...   beneath..  sun...

e-----------------------------------------------I
b-----------------------------------------------I
g-----------------------------------------------I
d---7777777--1212121212--7777777--1212121212----I
a---7777777--1212121212--7777777--1212121212----I
E---5555555--1010101010--5555555--1010101010----I
   So far.. away..      back...   fun...

A         D              A                  D 
I always been having beneath the scorching sun
A         D             A                 D
So far away holding me back to have some fun

e-----------------------------------------------I
b-----------------------------------------------I
g-----------------------------------------------I
d---9999999--1212121212--7777777--1212121212----I
a---9999999--1212121212--7777777--1212121212----I
E---7777777--1010101010--5555555--1010101010----I
   over..    now...      here...  neat...

e-----------------------------------------------I
b-----------------------------------------------I
g-----------------------------------------------I
d---9999999--1212121212--7777777--1212121212----I
a---9999999--1212121212--7777777--1212121212----I
E---7777777--1010101010--5555555--1010101010----I
   time...   waste...    free..   change...
          Bm   D                 A          D
But it's over now you gonna sit here under neat chair
     Bm      D                 A             D
No time to waste now that I'm free im gonna change...

refrain:

e------------------------------------------I
b------------------------------------------I
g------------------------------------------I
d---9999999--555555--1010101010--555555----I
a---9999999--555555--1010101010--555555----I
E---7777777--333333--1010101010--333333----I
    my turn..to go.. best...     life...
         Bm                        G
Now it's my turn, now I'm ready to go
              D               G....
Gonna be the best time of my life


Chorus:

e-----------------------------------------------I
b-----------------------------------------------I
g-----------------------------------------------I
d---7777777--1212121212--5555555--1212121212----I
a---7777777--1212121212--5555555--1212121212----I
E---5555555--1010101010--3333333--1010101010----I
    Stay..   fun...      fun..    day...
e-----------------------------------------------I
b-----------------------------------------------I
g-----------------------------------------------I
d---7777777--1212121212--5555555--1212121212----I
a---7777777--1212121212--5555555--1212121212----I
E---5555555--1010101010--3333333--1010101010----I
   play...   fun...      nonstop.. day...
      A                    D
Just stay, the sun having fun never stop
        G                 D
Having fun, fun, fun all day
        A                          D
Just to play, it's the sun having fun never stop
        G              D
Having nonstop summer day...
Base:
[ Tab from: http://www.guitaretab.com/r/rocksteddy/96918.html ]
a------------------------------------------------------------------I
E------------------------5555555-1010101010-5555555-1010101010-----I
adlib:
e---5---7-5------------5---7-5----------I
b-5-----------------5-------------------I
g-----------6-4-/9-------------6-4-2----I
d---------------------------------------I
a---------------------------------------I
E---------------------------------------I

verse 2:
e-----------------------------------------------I
b-----------------------------------------------I
g-----------------------------------------------I
d---7777777--1212121212--7777777--1212121212----I
a---7777777--1212121212--7777777--1212121212----I
E---5555555--1010101010--5555555--1010101010----I
   No..    before..     me...    white...

e-----------------------------------------------I
b-----------------------------------------------I
g-----------------------------------------------I
d---7777777--1212121212--7777777--1212121212----I
a---7777777--1212121212--7777777--1212121212----I
E---5555555--1010101010--5555555--1010101010----I
   no...    inside..    color...  life...
A        D                 A                D
No word before paint it to me in black and white
A         D                 A             D
No line inside, pale is the color of my life...

e-----------------------------------------------I
b-----------------------------------------------I
g-----------------------------------------------I
d---9999999--1212121212--7777777--1212121212----I
a---9999999--1212121212--7777777--1212121212----I
E---7777777--1010101010--5555555--1010101010----I
   over..    now...      here...  neat...

e-----------------------------------------------I
b-----------------------------------------------I
g-----------------------------------------------I
d---9999999--1212121212--7777777--1212121212----I
a---9999999--1212121212--7777777--1212121212----I
E---7777777--1010101010--5555555--1010101010----I
   time...   waste...    free..   change...
          Bm   D                 A          D
But it's over now you gonna sit here under neat chair
     Bm      D                 A             D
No time to waste now that I'm free im gonna change...

refrain:

e------------------------------------------I
b------------------------------------------I
g------------------------------------------I
d---9999999--555555--1010101010--555555----I
a---9999999--555555--1010101010--555555----I
E---7777777--333333--1010101010--333333----I
    my turn..to go.. best...     life...
         Bm                        G
Now it's my turn, now I'm ready to go
              D               G....
Gonna be the best time of my life


Chorus:

e-----------------------------------------------I
b-----------------------------------------------I
g-----------------------------------------------I
d---7777777--1212121212--5555555--1212121212----I
a---7777777--1212121212--5555555--1212121212----I
E---5555555--1010101010--3333333--1010101010----I
    Stay..   fun...      fun..    day...
e-----------------------------------------------I
b-----------------------------------------------I
g-----------------------------------------------I
d---7777777--1212121212--5555555--1212121212----I
a---7777777--1212121212--5555555--1212121212----I
E---5555555--1010101010--3333333--1010101010----I
   play...   fun...      nonstop.. day...
      A                    D
Just stay, the sun having fun never stop
        G                 D
Having fun, fun, fun all day
        A                          D
Just to play, it's the sun having fun never stop
        G              D
Having nonstop summer day...
Base:

a------------------------------------------------------------------I
E------------------------5555555-1010101010-5555555-1010101010-----I

adlib here: helow to all absolute service.. here in olongapo!
e---5---7-5------------5---7-5----------I
b-5-----------------5-------------------I
g-----------6-4-/9-------------6-4-2----I
d---------------------------------------I
a---------------------------------------I
E---------------------------------------I

Bridge:...just play the pattern...a...g...d...
And I got my bagpack straps on my back
Never gonna hit my sit on the back
Gonna hit the beach, beach
Stays on my feet, I'm never gonna stop
Get up, get up, get up....

[chorus]
[fin]
.....pls rate!...tnx!keep rockin!
Related for Nonstop Summer tab
Nonstop Summer chords by Rocksteddy