Song name
# A B C D E F G H I J K L M N O P Q R S T U V W X Y Z

Rockwell - Somebodys Watching Me tab

E|----------------------------------------|
B|----------------------------------------|
G|----------------------------------------| Repeat 
D|-----11-----11--9--------------9--------|
A|-------------------12--12--12-----12--11|
E|--9------9------------------------------|

E|----------------------------------------|
B|----------------------------------------|
G|----------------------------------------|
D|-----11-----11--9--------------9--------|
A|-------------------12--12--12-----12--11|
E|--9------9------------------------------|

E|----------------------------------------|
B|----------------------------------------|
G|----------------------------------------|
D|-----11-----11--9--------------9--------|
A|-------------------12--12--12-----12--11|
E|--9------9------------------------------|

Jiv | |
   _____
Tap to rate this tab
# A B C D E F G H I J K L M N O P Q R S T U V W X Y Z