Song name
# A B C D E F G H I J K L M N O P Q R S T U V W X Y Z

Rocky Loves Emily - Paper And Pen tab

-------------------------------------------------------------------------------
        Paper and Pen - Rockey Loves Emily
-------------------------------------------------------------------------------

Tuning: Standard (finger picking)

*I taught myself guitar by ear, Im not sure if the names of the chords
are correct or not. I also play weird chords compared to normal ones, 
so bear with me if these seem odd. Just let me know if there should be 
any changes. Thanks.

CHORDS:

    Csus2  G5    Em7   D5    Dmaj
E|----x-----x-----x-----x-----x----|
B|----3-----3-----3-----3-----3----|
G|----0-----0-----0-----2-----2----|
D|----x-----0-----2-----0-----0----|
A|----3-----x-----2-----x-----x----|
E|----x-----3-----x-----x-----2----|


=====================================================================================



E|----------------------------------------------|   |-------------|
B|---3------3------3---------------3------3---3-|   |-------------|
G|---0------0------2---------------0------0---0-|   |-4h5p4\2-2p0-|
D|----------------------------------------------|   |-------------|
A|-2---x--3---x-/5---x------0----2---x--3---x---|   |-------------|
E|-----x------x------x-3--3----------x------x-3-|x2 |-------------|
 
E|----------------------------------------------|
B|---3------3------3------3--------3------3---3-|
G|---0------0------2------0--------0------0---0-|
D|----------------------------------------------|
A|-2---x--3---x-/5---x-/7---0----2---x--3---x---|
E|-----x------x------x---------------x------x-3-|


  Csus2          G5             Em7              D5                Csus2
I miss you under mistletoe, and long walks under falling snow, and your lips 

         G5               Em7       D5 
pressed against my window.              Darling please come home.


  Verse
E|----------------------------------------------|   |-------------|
B|---3------3------3---------------3------3---3-|   |-------------|
G|---0------0------2---------------0------0---0-|   |-4h5p4\2-2p0-|
D|----------------------------------------------|   |-------------|
A|-2---x--3---x-/5---x------0----2---x--3---x---|   |-------------|
E|-----x------x------x-3--3----------x------x-3-|x2 |-------------|
 
E|----------------------------------------------|
B|---3------3------3------3--------3------3---3-|
G|---0------0------2------0--------0------0---0-|
D|--------------------------0h2-----------------|
A|-2---x--3---x-/5---x-/7--------2---x--3---x---|
E|-----x------x------x---------------x------x-3-|



  Csus2          G5             Em7              D5                Csus2
I miss you under mistletoe, and long walks under falling snow, and your lips 

         G5               Em7       D5 
pressed against my window.              

                    Csus2         G5                       Em7           D5
Darling please come hoooooooooooo-ome, darling please come hoooooooooooo-ome... 

                    Csus2         G5                       Em7           D5
Darling please come hoooooooooooo-ome, darling please come hoooooooooooo-ome... 

Em7          Csus2           G5                      Dmaj                 Em7
Iíll leave a light on, on my front porch, so you can find me in the dark. Iíll 

        Csus2           G5        Dmaj                   Em7          Csus2
leave a light on, at my backdoor. I love you as you are. Iíll leave a light on, 

      G5                      Dmaj                 Em7          Csus2
on my front porch, so you can find me in the dark. Iíll leave a light on... A 

G5    Dmaj
light on...


E|----------------------------------------------|
B|---3------3------3---------------3------3---3-|
G|---0------0------2---------------0------0---0-|
D|----------------------------------------------|
A|-2---x--3---x-/5---x------0----2---x--3---x---|
E|-----x------x------x-3--3----------x------x-3-|


  Csus2          G5             Em7              D5                Csus2
I miss you under mistletoe, and long walks under falling snow, and your lips 

         G5               Em7       D5 
pressed against my window.              Darling please come home.

  Csus2          G5             Em7              D5                Csus2
I miss you under mistletoe, and long walks under falling snow, and your lips 

         G5               Em7       D5 
pressed against my window.              Darling please come home. 


E|----------------------------------------------|
B|---3------3------3---------------3------3---3-|
G|---0------0------2---------------0------0---0-|
D|----------------------------------------------|
A|-2---x--3---x-/5---x------0----2---x--3---x---|
E|-----x------x------x-3--3----------x------x-3-|




| /  slide up
| \  slide down
| h  hammer-on
| p  pull-off
| ~  let note ring
| +  harmonic
| x  Mute note
===============================================================================

http://rockylovesemily.net/
Tap to rate this tab
# A B C D E F G H I J K L M N O P Q R S T U V W X Y Z