Song name
# A B C D E F G H I J K L M N O P Q R S T U V W X Y Z

Rocky Orchestra - Gonna Fly Now tab

Daniel Fedai Larsen - danielfedailarsen@hotmail.com

                        Gonna Fly Now - Rocky Orchestra

E ----------------------------0--------------------------------------3--|
B -1-1-1---1-1-1---1-1------1-1-1---5-5-5---5-5-5---5-5------5-5-5------|
G ----------------------------------------------------------------------|
D ----------------------------------------------------------------------|
A ----------------------------------------------------------------------|
E ----------------------------------------------------------------------|

E -----------------------------------------------------------------------------------|
B -5---5-5-5---5-5---5-5------6-5---------5-8-10---10-12-5-----5-5-8-10--10-10-12-5--|
G -----------------------------------------------------------------------------------|
D -----------------------------2-----------------------------------------------------|
A -----------------------------------------------------------------------------------|
E -----------------------------------------------------------------------------------|

E ---------------------------------------------------------------|
B ----------------------------------------------------------6-5--|
G -7-5-7-5-7-9-----5-5-5---5-5-5---5-5--5-5----------------------|
D ------------------------------------------------------2--------|
A ---------------------------------------------------------------|
E ---------------------------------------------------------------|
Tap to rate this tab
# A B C D E F G H I J K L M N O P Q R S T U V W X Y Z