Song name
# A B C D E F G H I J K L M N O P Q R S T U V W X Y Z

Rocky Orchestra - Gonna Fly Now tab

Help us improve GuitareTab! Take a short survey!
SONG: Gonna Fly Now [Theme From ‘Rocky’]
ARTIST: Bill Conti

Standard Tuning

INTRO

E|------------------------------------------------------|------------------------------------------------|
B|------------------------------------------------------|------------------------------------------------|
G|------------------------------------------------------|---------------------------------0--------------|
D|--------------------------------2---------------------|---2---2---2---2---2---2---2--------2---2---2---|
A|---3---3---3---3---3---3---3--------3---3---3---------|------------------------------------------------|
E|------------------------------------------------------|------------------------------------------------|


E|---0---0---0---0---0---0---0---0-----------|---0---3---5------3---5---0------0---3---5-----3---5---0---|
B|-------------------------------------------|-----------------------------------------------------------|
G|-------------------------------------------|-----------------------------------------------------------|
D|-------------------------------------------|-----------------------------------------------------------|
A|-------------------------------------------|-----------------------------------------------------------|
E|-----------------------------------1---0---|-----------------------------------------------------------|

E|------------------------0--------------------------------1---0-|
B|---3---1---3---1---3----------1---1---0---0--------------------|
G|----------------------------------------------2---2---0--------|
D|---------------------------------------------------------------|
A|---------------------------------------------------------------|
E|---------------------------------------------------------------|

E|---0---3---5---------3---5---0---------0---3---5----------3---5---0--|-----------------------0---------------------------1---0-|
B|---------------------------------------------------------------------|---3---1---3---1---3--------1--1--0--0-------------------|
G|---------------------------------------------------------------------|----------------------------------------2--2--0----------|
D|---------------------------------------------------------------------|---------------------------------------------------------|
A|---------------------------------------------------------------------|---------------------------------------------------------|
E|---------------------------------------------------------------------|---------------------------------------------------------|
Related for Gonna Fly Now tab