Song name
# A B C D E F G H I J K L M N O P Q R S T U V W X Y Z

Rocky Votolato - Prison Is Private Property tab

Artist: Rocky Votolato
Song: Prison is Private Property
Album: Makers

Capo 2 

For ease, everything is relative to the capo. 

Thanks to Sam Rodewald, who tabbed this out for me and all of you by ear.
You can easily pick up the speed and timing by listening to the song.

Verses: 4x

e |-----------------|-----------------|-----------------|-----------------|
B |-----3---3---3---|-3---3---3---3---|-----2---2---2---|-2---2---2---2---|
G |-----4---4---4---|-4---4---4---4---|-----4---4---4---|-4---4---4---4---|
D |---4---4---4---4-|---4---4---4---4-|---4---4---4---4-|---4---4---4---4-|
A |-2-------2-------|-2-------2-------|-0-------0-------|-0-------0-------|
E |-----------------|-----------------|-----------------|-----------------|


e |------------------|---------2-------|
B |------------------|-----------2-----|
G |--4---4---4---4---|-3---3-------3---|
D |--4---4---4---4---|-4---4---------4-|
A |------------------|-----------------|
E |----2---2---2-----|---2---2---------|

Bridge:

e |-3---------------|--2--------------|--3--------------|--2--------------|
B |-3---------------|--3--------------|--3--------------|--2--------------|
G |-4---------------|--4--------------|--4--------------|--3--------------|
D |-5---------------|--4--------------|--5--------------|--4--------------|
A |-5---------------|--2--------------|--5--------------|--4--------------|
E |-3---------------|-----------------|--3--------------|--2--------------|

Chorus: 2x

e |-2---------------|--3--------------|-----------------|--5--------------|
B |-3---------------|--3--------------|--7--------------|--5--------------|
G |-4---------------|--4--------------|--7--------------|--6--------------|
D |-4---------------|--5--------------|--7--------------|--7--------------|
A |-2---------------|--5--------------|--5--------------|--7--------------|
E |-----------------|--3--------------|-----------------|--5--------------|


e |-0---------------|--2--------------|--2--------------|--3--------2-----|
B |-0---------------|--3--------------|--2--------------|--3--------2-----|
G |-0---------------|--4--------------|--3--------------|--4--------3-----|
D |-2---------------|--4--------------|--4--------------|--5--------4-----|
A |-2---------------|--2--------------|--4--------------|--5--------4-----|
E |-0---------------|-----------------|--2--------------|--3--------2-----|

Interlude:

e |-----2-2-----2-2-|-----3-3-----3-3-|-------0---------|-------------------|
B |-----3-3-----3-3-|-----3-3-----3-3-|-------0---------|-------------------|
G |-----4-4-----4-4-|-----4-4-----4-4-|-------0---------|-------0-------2---|
D |-----4-4-----4-4-|-----5-5-----5-5-|-----------------|-----0-----0h2---4-|
A |-2-2-----0-0-----|-----5-5-----5-5-|---0h2-----------|-0h2-----0---------|
E |-----------------|-3-3-----2-2-----|-0---------0h2h3-|-------------------|
      [fast]                   
e |------2----------|-----------0-----|-------------0---|-2---0-----------|
B |------3--2-3-5-0-|-------2-3---0---|-0---2---3-------|---0-----3---2-0-|
G |----4--4---------|---2h4---------0-|---0---0---0---0-|-------0---0-----|
D |---4-------------|-----------------|-----------------|-----------------|
A |-2-------0-------|-----------------|-----------------|-----------------|
E |-----------------|-3---------------|-0-------0-------|-2-------2-------|
      [fast]                   
e |------2----------|-----------0-----|-------------0---|-----------------|
B |------3--2-3-5-0-|-------2-3---0---|-0---2---3-------|-2-0-------------|
G |----4--4---------|---2h4---------0-|---0---0---0---0-|-----3-----------|
D |---4-------------|-----------------|-----------------|-----------------|
A |-2-------0-------|-----------------|-----------------|-----------------|
E |-----------------|-3---------------|-0-------0-------|-2-----0h2-3-0---|

e |-----------------|-----------------|
B |------3---3---3--|-2---2---2---2---|
G |------4---4---4--|-0---0---0---0---|
D |----4---4---4----|---4---4---4-----|
A |--2-------2------|-4-------4-------|
E |-----------------|-----------------| Repeat All

Make sure to check out Sam Rodewald's music as appreciation for taking the time to tab this. 
Enjoy :]
Tap to rate this tab
# A B C D E F G H I J K L M N O P Q R S T U V W X Y Z