Song name
# A B C D E F G H I J K L M N O P Q R S T U V W X Y Z

Rococode - Dreams tab

Great band from Vancouver; I think you should check em' out and give it a shot if 
you want new music in your life!

Official Website: http://rococode.com/

Artist: Rococode        
Song: Dreams
Album: Guns, Sex, and Glory
Tuning: Standard

Intro

e |----x-----------------|
B |----7-----------------|
G |----7-----------------|
D |----7-----------------|
A |----x-----------------|      
E |----7-----------------|

Verse 1

e |--x----9---x---0---------|
B |--7----9---0---0---------|
G |--7----9---0---0---------|
D |--7----9---2---0---------|
A |--x----x---3---2---------|   
E |--7----9---x---3---------|

How do I find you in dreams
Where all is not as it seems
How do I see you in between
The lines defining where weíll meet
How do I keep the mystery
When your as far as
As far as you can be

e |--x-------------------|
B |--x-------------------|
G |--4-------------------|
D |--4-------------------|
A |--2-------------------|      
E |--x-------------------|

Chorus

e |--x--x---x--x---x----x------|
B |--x--7---9--x---12---7------|
G |--x--7---9--x---12---7------|
D |--x--7---9--x---12---7------|
A |--x--x---x--x---x----x------|        
E |--x--7---9--x---12---7------|

Oh need you to get back to sleep
So you can go haunting for me

Verse 2

e |--x----9---x---0---------|
B |--7----9---0---0---------|
G |--7----9---0---0---------|
D |--7----9---2---0---------|
A |--x----x---3---2---------|   
E |--7----9---x---3---------|

How do I find you in dreams?
When itís so cold between the sheets
How do I feel cheap to cheat
When youíre as far as you can 
Far as you can be

Chorus

Oh need you to get back to sleep
So you can go haunting for me
Oh need you to get back to sleep

Bridge/Solo

e |-------------------------------------------------------------|
B |-------------------------------------------------------------|
G |---------5/7---9---11--(x3)---5/14---11---9/11---9---11---9--|
D |-------0-----0---0----------0------0----0------0---0----0----|
A |-------------------------------------------------------------|       
E |-0--/7-------------------------------------------------------|


(Oh) Iím running
(Oh) Iím haunting
(Oh) Iím haunting you

Chorus 2

Oh need you to get back to sleep


e |-----x---0---------|
B |-----0---0---------|
G |-----0---0---------|
D |-----2---0---------|
A |-- --3---2---------|         
E |-----x---3---------|


So I keep this haunting for me


e |--x-------x---0---------|
B |--7-------0---0---------|
G |--7-------0---0---------|
D |--7-------2---0---------|
A |--x-------3---2---------|    
E |--7-------x---3---------|

Oh need you to get back to sleep
So you can go haunting for me
Oh need you to get back to sleep

Outro

e |---x------------------|
B |---7------------------|
G |---7------------------|
D |---7------------------|
A |---x------------------|      
E |---7------------------|

(Oh)
Tap to rate this tab
 
# A B C D E F G H I J K L M N O P Q R S T U V W X Y Z