Song name
# A B C D E F G H I J K L M N O P Q R S T U V W X Y Z

Rod Stewart - Forever Young tab

Rod Stewart
Forever young(solo)
From:Out of Order
Standard tuning

I am very shakey on this solo so if you see any mistakes what so ever please don't 
to fix it.

e-----------------------------------------------------------------|
b-----------------------------------------------------------------|
g--------6-8-9-8----9-8----6--------------------------------------|
d----9-----------9------9-----9-----------------------------------|
a--------------------------------7--9--11-------------------------|
e-----------------------------------------------------------------|

e---------------------------------------------------------------------|
b---------------------------------------------------------------------|
g--------6-8-9--8----9-8----6----------------------9--------9---------|
d----9------------9------9------9--------------7-9-----9h11---119p7h9-|
a----------------------------------7-9--9--11-------------------------|
e---------------------------------------------------------------------|
Tap to rate this tab
# A B C D E F G H I J K L M N O P Q R S T U V W X Y Z