Guitaretab - guitar tabs
Song name
# A B C D E F G H I J K L M N O P Q R S T U V W X Y Z

Rod Stewart - Maggie May tab

ARTIST: ROD STEWART
SONG: MAGGIE MAY
SOLO - PT. 1
3:04 TO 3:18
TAB BY: DON CZARSKI
EMAIL: GUITARZAN7@HOTMAIL.COM

thought this was an easier way to play this part:

MAGGIE MAY SOLO - PT. 1
[ Tab from: http://www.guitaretab.com/r/rod-stewart/228590.html ]
E ---------------------|-----------------|----------------| 
B ---------------------|-----------------|----------------|
G ---------------------|-----------------|----------------|
D ------7--------------|------7----------|------7--7h9----|
A --7/9---7/8/7--5-----|--7/9---7b-7-5---|--7/9---------9-|
E -------------------7-|---------------7-|----------------|

E --------------------|-----------------|------------------------| 
B --------------------|-----------------|------------------------|
G --------------------|-----------------|-7----------------------|
D --------------------|------7----------|---7--7-----------------|
A --7/8/7--5---5-5----|--7/9---7b-7-5---|------7-h9--7/5---7br-5-|
E -----------7------7-|---------------7-|----------------7-------|

E ---------------------|
B ---------------------|
G ---------9b--7-------|
D ------7--------------|
A --7/9----------------|
E ---------------------|
Related for Maggie May tab
Maggie May chords by Rod Stewart