Song name
# A B C D E F G H I J K L M N O P Q R S T U V W X Y Z

Rod Stewart - Primary School tab

Help us improve GuitareTab! Take a short survey!
 This song isn't hard to play but is very beautiful!

(intro)

E------------------------------------------------
A----------------0---------------5-4-2-----------
D-7---7---7---7----------------6-5-4-2-----------
G--7-7-7-7-7-7-7----7---------4------------------
B------------------8-8-7-6-5-4-------------------
E---7---7---7---7------7-6-5---------------------

Whem I.......

1st guitare:

E-7---7---7---7---7---7---7---7---7---7---7------
A--7-7-7-7-7-7-7-7-7-7-7-7-7-7-7-7-7-7-7-7-7-----
D---7---7---7---7---7---7---7---7---7---7---7----   2 times
G------------------------------------------------
B------------------------------------------------
E------------------------------------------------

2nd guitare:

E------------------------------------------------
A-7-7-6-5-7---------------------7-7-9-7-6-2------
D-----------7-7-9-7-7-7/9-9-8-5-----------2------   2 times
G--------------------7----9-8-5------------------
B------------------------------------------------
E------------------------------------------------

(chorus)

E------------------------------------------------
A-7-7-7-7-9-11-13-5-5-7-9-11-4-3-2---------------
D-7-7-7-7-9-11-13-5-5-7-9-11-4-3-2---------------
G------------------------------------------------
B------------------------------------------------
E------------------------------------------------

1st guitare:

E-9---9---9---9---9---9---9---9---9---9---9------
A--9-9-9-9-9-9-9-9-9-9-9-9-9-9-9-9-9-9-9-9-9-----
D---9---9---9---9---9---9---9---9---9---9---9----   2 times
G------------------------------------------------
B------------------------------------------------
E------------------------------------------------

2nd guitare:

E-7-7-6-5-7---------------------7-7-9-7-6-2------
A-----------7-7-9-7-7-7/9-9-8-5-----------2------
D--------------------7----9-8-5------------------   2 times
G------------------------------------------------
B------------------------------------------------
B------------------------------------------------

(chorus)
.............

1st guitare:

E-7---7---7---7---7---7---7---7---7---7---7------
A--7-7-7-7-7-7-7-7-7-7-7-7-7-7-7-7-7-7-7-7-7-----
D---7---7---7---7---7---7---7---7---7---7---7----   2 times
G------------------------------------------------
B------------------------------------------------
E------------------------------------------------

2nd guitare:

E-7-7-6-5-7---------------------7-7-9-7-6-2------
A-----------7-7-9-7-7-7/9-9-8-5-----------2------
D--------------------7----9-8-5------------------   2 times
G------------------------------------------------
B------------------------------------------------
E------------------------------------------------

(solo of end)

E------------------------------------------------
A------------------------------------------7-6-2-
D-9-10-11-12/7-7p9-------------------------7-6-2-
G------------------------------------------------
B-----------------12-12----11-10-9/12------------
E-----------------12-12p13-11-10-9/12-12p14------


   I hope that you'll enjoy it
Related for Primary School tab