Rod Stewart - You Wear It Well tab

"Interludings" intro.  It doesn't appear often live or in covers but is continuous 
on the album.  Finger-picking isn't very difficult because of the droning bass D string.



E --4-4h5-----4-4h5-----4-4h5-77p5-3-3p2--5----3-3---33p2-3-4-4h5-5---|
B --------7---------7-----------------------7-----3----------------5--|
G ---------6---------6-----------------------6-----4----------------6-|
D ----0-------0-0-------0-0---00---0-0----0----0---0-00---0-0-0-----0-|
A --------------------------------------------------------------------|
E --------------------------------------------------------------------|

E --4-4h5-5----4-4h5-5----4-4h5-77p5-3-3p2--5----3-3---33p2-3-4-4h5-5-------|
B ---------5--------- 5-----------------------------3----------------5---7*-|
G ----------6--------- 6-----------------------------4----------------6--7*-|
D --0-0-----0--0-0-----0--0-0---00---0-0----0----0---0-00---0-0-0-----0--7*-|
A --------------------------------------------------------------------------|
E --------------------------------------------------------------------------|


Heard here:
http://www.youtube.com/watch?v=rsqKdZ3JZ2k
Tap to rate this tab
 
# A B C D E F G H I J K L M N O P Q R S T U V W X Y Z