Song name
# A B C D E F G H I J K L M N O P Q R S T U V W X Y Z

Rod Stewart - Have You Ever Seen The Rain tab

Song:   Have you ever seen the rain
Artist: Rod Stewart
Tuning:  EADG but higher than original CCR song
Tabbed by :  Bruno Frenchy
Notes: Rod Stewart performance, with lyrics  have fun!


INTRO

G|-----------|-------------|-----------|
D|-----------|-6-4---------|-9-8-6-4---|
A|-----------|-----6-6-4---|-----------|
E|-----------|-----------7-|-----------|


VERSE 1
00:13
G|-----------|-----------|----------|------|
D|-----------|-----------|----------|------|
A|--------/9-|--------/9-|-------/9-|--6-7-|
E|-7--7-7----|-7--7-7----|-7--7-7---|-7----|
Someone told me long ago
There's a calm before the storm


G|-----------|-----------|----------|-----------|
D|-------/11-|-------/11-|----------|-----------|
A|-9--9-9----|-9--9-9----|-------/9-|-------/9--|
E|-----------|-----------|-7--7-7---|-7--7-7----|
I know, it's been coming for some time


G|-----------|----------|----------|--------|
D|-----------|----------|----------|--------|
A|--------/9-|-------/9-|-------/9-|---6-7--|
E|-7--7-7----|-7--7-7---|-7--7-7---|-7------|
When it's over, so they say
It'll rain on a sunny day


G|-----------|-----------|----------|-----------|
D|-------/11-|-------/11-|----------|-----------|
A|-9--9-9----|-9--9-9----|-------/9-|-------/9--|
E|-----------|-----------|-7--7-7---|-7--7-7----|
I know, shinning down like water


G|-----------|
D|-9-8-6-4---|
A|-----------|
E|-----------|

CHORUS
00:47
G|----------|----------|---------------------|
D|----------|----------|-9--9/8--8/6--6/4--4-|
A|-7--7-7-7-|-9--9-9-9-|---------------------| x2 then
E|----------|----------|---------------------|
I want to know       Have you ever seen the rain
I want to know       Have you ever seen the rain

G|----------|----------|-----|------------------|
D|----------|----------|-----|----------9-8-6-4-|
A|-7--7-7-7-|-9--9-9-9-|-9-9-|-----/9-9---------|
E|----------|----------|-----|-7--7-------------|
Coming down on a sunny day



VERSE 2
01:11
G|-----------|----------|----------|--------|
D|-----------|----------|----------|--------|
A|--------/9-|-------/9-|-------/9-|---6-7--|
E|-7--7-7----|-7--7-7---|-7--7-7---|-7------|
Yesterday and days before
Sun is cold and rain is hard

G|-----------|-----------|----------|---------|
D|-------/11-|-------/11-|----------|-9-8-6-4-|
A|-9--9-9----|-9--9-9----|-------/9-|---------|
E|-----------|-----------|-7--7-7---|---------|

I know, been that way for all my time

G|-----------|----------|----------|--------|
D|-----------|----------|----------|--------|
A|--------/9-|-------/9-|-------/9-|---6-7--|
E|-7--7-7----|-7--7-7---|-7--7-7---|-7------|
'Til forever, on it goes
Through the circle of fast and slow


G|-----------|-----------|----------|---------|
D|-------/11-|-------/11-|----------|-9-8-6-4-|
A|-9--9-9----|-9--9-9----|-------/9-|---------|
E|-----------|-----------|-7--7-7---|---------|

I know, it can't stop, I wonder


CHORUS
01:45
G|----------|----------|---------------------|
D|----------|----------|-9--9/8--8/6--6/4--4-|
A|-7--7-7-7-|-9--9-9-9-|---------------------| x2 then
E|----------|----------|---------------------|

I want to know       Have you ever seen the rain
I want to know       Have you ever seen the rain

G|----------|----------|-----|------------------|
D|----------|----------|-----|----------9-8-6-4-|
A|-7--7-7-7-|-9--9-9-9-|-9-9-|-----/9-9---------|
E|----------|----------|-----|-7--7-------------|
Coming down on a sunny day

Yeah........


Guitar solo
02:10
G|----------|---------------------|
D|----------|-9--9/8--8/6--6/4--4-|
A|-7--7/6-4L|---------------------| x2
E|----------|---------------------|


G|------------|---------------------|
D|------------|-9--9/8--8/6--6/4--4-|
A|-7--7-7--9L-|---------------------| x1
E|------------|---------------------|

THEN, IT ENDS LIKE THIS:

02:36
G|----------|----------|---------------------|
D|----------|----------|-9--9/8--8/6--6/4--4-|
A|-7--7-7-7-|-9--9-9-9-|---------------------| x2 then
E|----------|----------|---------------------|

I want to know Have you ever seen the rain
I want to know Have you ever seen the rain

G|----------|----------|-----------|--------------|
D|----------|----------|-----------|-6-4----------|
A|-7--7-7-7-|-9--9-9-9-|-9-9-----/9|-----6-6-4----|
E|----------|----------|-----77---|-----------7L-|
Coming down on a sunny day
Tap to rate this tab
# A B C D E F G H I J K L M N O P Q R S T U V W X Y Z