Song name
# A B C D E F G H I J K L M N O P Q R S T U V W X Y Z

Roddy Woomble - I Came In From The Mountain tab

This is my first tab - please leave a rating!

Drop D tuning


INTRO

e|------------------------|----------------------|
B|----3-----------3-------|----3-----------3-----|
G|----------2-----------2-|----------2-----------|
D|-------0-----------0----|-------0-----------0--|
A|------------------------|----------------------|
D|-0-----------0----------|-0-----------0--------|




VERSES

e|----------------------0-|---------0------------|----------2------------|----------0----------0-|
B|----3-----------3-------|---2----------2-----2-|----3----------3-------|----3----------3-------|
G|----------2--------2----|------2----------2----|-------4----------4--0-|-----------------------|
D|-------0----------------|----------------------|-----------------------|-------0----------0----|
A|------------------------|----------------------|-2---------------------|-----------------------|
D|-0-----------0----------|----------------------|-----------------------|-5---------------------|

1.  My dreams would change over centuries
2.  My fears would change over centuries




e|----------5-----------0-|---------0------------|----------2------------|----------0----------0-|
B|----3-----------3-------|---2----------2-----2-|----3----------3-------|----3----------3-------|
G|------------------------|------2----------2----|-------4----------4--0-|-----------------------|
D|-------0-----------0----|----------------------|-----------------------|-------0----------0----|
A|------------------------|----------------------|-2---------------------|-----------------------|
D|-0----------------------|----------------------|-----------------------|-5---------------------|

1.  If i had a thousand lives to choose from
2.  If i could choose a thousand lives to live from





e|----------2-----------0-|---------0------------|----------0----------0-|---------0-----------0-|
B|----0-----------0-------|---2----------2-----2-|----3----------3-------|---3-----------3-------|
G|-------2-----------2----|------2----------2----|-----------------------|-----------------------|
D|------------------------|----------------------|-------0----------0----|------0-----------0----|
A|-2----------------------|----------------------|-----------------------|-----------------------|
D|------------------------|----------------------|-5---------------------|-----------------------|

1.  But we don't change what we don't see
2.  But we can't change what we can't see





e|----------2-----------0-|---------0------------|----------0----------0-|---------0-----------0-|
B|----0-----------0-------|---2----------2-----2-|----3----------3-------|---3-----------3-------|
G|-------2-----------2----|------2----------2----|-----------------------|-----------------------|
D|------------------------|----------------------|-------0----------0----|------0-----------0----|
A|-2----------------------|----------------------|-----------------------|-----------------------|
D|------------------------|----------------------|-5---------------------|-----------------------|

1.  Because we affect each other endlessly
2.  Because we affect each other endlessly



CHORUS

e|----------5-----------0-|---------0------------|----------5------------|----------0----------0-|
B|-3-------------3--------|---2----------2-----2-|----3----------3-------|----0----------0-------|
G|-2----------------------|------2----------2----|---------------------0-|-------0----------0----|
D|-0-----0----------0-----|----------------------|-------0----------0----|-2---------------------|
A|------------------------|----------------------|-----------------------|-----------------------|
D|------------------------|----------------------|-0---------------------|----------4----------5-|


  And i see between your eyes                           lines of language to be taken along




e|-----------0------------|-----------3--------0-|-----------0---------5-|
B|-----0-----------0------|--0--------0--------2-|-----3---------3-------|
G|--------0-----------0---|--0--------0--------2-|--------2---------2----|
D|------------------------|--2-----------------2-|-----------------------|
A|------------------------|--2-------------------|-----------------------|
D|------------------------|----------------------|--0--------------------|

                             I came in from the mountain
Tap to rate this tab
 
# A B C D E F G H I J K L M N O P Q R S T U V W X Y Z