Song name
# A B C D E F G H I J K L M N O P Q R S T U V W X Y Z

Roddy Woomble - The Universe Is On My Side tab


---------------------------------------------------|
---------------------------------------------------|
o--------------------------------------------------|
o------------11h13-------------------9h-11----11---|
-9-----9-----------------12h14---------------------|
-7-------------------------------------------------|


---------------------------------------------------||----||
---------------------------------------------------||----||
--------------------------------------------------o||----||
--------------11h13-------------------9h-11-11h13-o||----||
--11----11----------------12h14--------------------||----||
--9------------------------------------------------||----||


Chorus is based around esus2 I think
Tap to rate this tab
# A B C D E F G H I J K L M N O P Q R S T U V W X Y Z