Song name
# A B C D E F G H I J K L M N O P Q R S T U V W X Y Z

Rodgers And Hammerstein - Edelweiss tab

-------------------------------------------------------------------------------
                             Edelweiss - Sound of Music
-------------------------------------------------------------------------------
Tuning:   EBGDAE
   
    G   D       G   C     G      Em         Am7  D7
  Edelweiss,  edelweiss |Every morning you greet me     |
e-----|-5---|-3---|-----|-----|-----------|--0--|-------|
B-0-3-|-4---|-0-3-|-1---|-0-0-|-0---1---3-|--1--|-3---1-|
G-0-0-|-----|-0-0-|-0---|-0-0-|-0---0---0-|--0--|-2-----|
D-----|-4---|-----|-2---|-----|-2---2---2-|-----|-0-----|
A---2-|-----|---2-|-----|-----|-----------|--3--|-------|
E-3---|-----|-----|-----|-3-3-|-----------|-----|-------|

   G         D       G         C      G        D7       G
  Small and white, clean and bright| You look happy to meet me|
e----------|--5--|--3-------|------|--------|----0--2-|-3-|-3-|
B---0---3--|--4--|--0-----3-|--1---|--0---3-|--3------|-0-|-0-|
G---0---0--|-----|--0-----0-|--0---|--0---0-|--0------|-0-|-0-|
D----------|--4--|----------|--2---|--0---0-|--0----0-|---|---|
A-------2--|-----|--------2-|------|--------|----3----|---|---|
E---3------|-----|----------|------|--------|---------|---|---|
 
   D                       G               C         A7    D  D7
  Blossom of snow may you bloom and grow| Bloom and grow, forever     |
e--5--------|--2---0-----|----------|-3-|---0----3-|--5---3-|-2-|-----|
B-----3---3-|--3-------3-|--0----3--|-0-|---1----0-|------0-|-1-|-3-1-|
G-----2---2-|------2-----|--0----0--|-0-|---0----0-|------0-|---|-2---|
D--0--0---0-|--0-------0-|-------0--|---|----------|--0-----|-0-|-0---|
A-----------|------------|----------|---|---3------|--------|---|-----|
E-----------|------------|--3-------|---|----------|--------|---|-----|

  G    D      G    C       G       D7       G
  Edelweiss, edelweiss | Bless my homeland forever  |
e------|-5-|--3----|---|---------|-----0---2|-3-|---|
B--0-3-|-4-|--0--3-|-1-|--0---3--|--3-------|-0-|---|
G--0-0-|---|--0--0-|-0-|--0---0--|--2--2----|-0-|---|
D------|-4-|-------|-2-|------0--|--0--0---0|---|---|
A----2-|---|-----2-|---|---------|----------|---|---|
E--3---|---|-------|---|--3------|----------|-3-|---|
Tap to rate this tab
# A B C D E F G H I J K L M N O P Q R S T U V W X Y Z