Song name
# A B C D E F G H I J K L M N O P Q R S T U V W X Y Z

Rodney Atkins - If Youre Going Through Hell tab

Here is the solo for "Going through Hell." I have software to slow it down, and  this is 
I came up with. Enjoy.

E------------------------------------------------------------------|
B--10-/--12---12--12--12--x---------10-/--12--X--10--10----10-/-12-|
G---9-/--11---11--11--11--x----------9-/--11--X---9--9------9-/-11-|
D------------------------------------------------------------------|
A------------------------------------------------------------------|
E------------------------------------------------------------------|
   D          D    U   D  U         D         D  U   D      D


REPEAT LINE 1

E----9---9--10---9--9-------9------9------9-----------------------------|
B---10--10--10--10-10------10-----10-----10-----------------------------|
G----9---9--9---10-10------9h11----9h11---9-----------------------------|
D--------------------------------------------11\9--7----9p7h-9/11--7----|
A-----------------------------------------------------------------------|
E-----------------------------------------------------------------------|
     D   D  U    U  U      D       D     D   D     D     D         D
(bar ur 1st finger)

E------------------------------------------------------|
B---------7--7-----------9b11----9--7------------------|REPEAT THIS LINE
G--9p7h9-------9p7--9p7----------------9---7-----------|
D------------------------------------------------------|
A------------------------------------------------------|
E------------------------------------------------------|
   D      D U D          D       D U   D   U

E-----------------------------------------10--12/14--12--------------------|
B-----------------10--9--10/-12---10--12-----------------------------------|
G--9/11--9--11-------------------------------------------------------------|
D--------------------------------------------------------------------------|
A--------------------------------------------------------------------------|
E--------------------------------------------------------------------------|
   JUST LISTEN FOR TIMING
Tap to rate this tab
# A B C D E F G H I J K L M N O P Q R S T U V W X Y Z