Song name
# A B C D E F G H I J K L M N O P Q R S T U V W X Y Z

Rodney Atkins - Best Thing tab

INTRO:

e|--2/3---3-3---2/3---3-3------------------------------------0-------|
B|--2/3---3-3---2/3---3-3------------------------------------1-------|
G|--3/4---4-4---3/4---4-4--------------------0-----------000-0-------|
D|--4/5---5-5---4/5---5-5---------3--------0---3-2-0-----222-2-------|
A|--4/5---5-5---4/5---5-5-----0-3--------2-----------3-------3-------|
E|--2/3---3-3---2/3---3-3---1----------3---------------------0-------|

e|--2/3---3-3---2/3---3-3----------------------------------------0---|
B|--2/3---3-3---2/3---3-3----------------------------------------1---|
G|--3/4---4-4---3/4---4-4--------------------0-----0---------000-0---|
D|--4/5---5-5---4/5---5-5---------3--------0---2/3---1/2-----222-2---|
A|--4/5---5-5---4/5---5-5-----0-3--------2---------------3-------3---|
E|--2/3---3-3---2/3---3-3---1----------3-------------------------0---|

VERSE and CHORUS:

e|-----0-0------1-1------3-3--|
B|-----1-1------1-1------0-0--|
G|-----0-0---1/22-2------0-0--|
D|--1/22-2---2/33-3------0-0--|
A|--2/33-3---2/33-3---1/22-2--|
E|-----0-0------1-1---2/33-3--| And so on.
Tap to rate this tab
 
# A B C D E F G H I J K L M N O P Q R S T U V W X Y Z