Song name
# A B C D E F G H I J K L M N O P Q R S T U V W X Y Z

Rodney Atkins - Take A Back Road tab

Tabbed by: Alan Schaaf
Email: alanmschaaf@gmail.com

This is my first tab. Im pretty sure its dead on. I decided to do it because it is a 
great song and all the other tabs are acoustic version and chords only. If you guys like it 
I will tab out the whole song. Please email me any feedback

Tuning: standard


e|---5b-5-----------------------5b-5---5---5b-5----5-------------|
B|---5b-5-3--3-2----------------5b-5-3-5---5b-5-3--5--3----------|
G|-----------4-2-------------------------------------------------|
D|-------------------x-x----0--------------------------------0h2-|
A|----------------0h2----0h2------------------------------0h2----|
E|---------------------------------------------------------------|

e|---------------------------------------------------------------|
B|---------------------------------------------------------------|
G|---------------------------------------------------------------|
D|---0-2/4-4-2p0-------------------------------------------------|
A|---------------2-----------------------------------------------|
E|---------------------------------------------------------------|


| /  slide up
| \  slide down
| h  hammer-on
| p  pull-off
| ~  vibrato
| +  harmonic
| x  Mute note
Tap to rate this tab
 
# A B C D E F G H I J K L M N O P Q R S T U V W X Y Z