Song name
# A B C D E F G H I J K L M N O P Q R S T U V W X Y Z

Rodney Holmes - Electric Wildlife tab

-----------------------------------------------------------------------------
	             Electric Wildlife - Rodney Holmes
-----------------------------------------------------------------------------


                               x3
                      |--------------------|
                      
e|---0---0-------0----|---0---0-------0-----|
B|-0---0-------0------|-0---0-------0-------|
G|---------1-2-----1-2|---------1-2------1-2|
D|--------------------|---------------------|
A|--------------------|---------------------|
E|--------------------|---------------------|
 
             7/8                          6/8
e|-----------------------------|------------------------|
B|-----2-------2-------2-------|----2-----2-----2-------|
G|---1---1---1-----1-----1---1-|--1-----1-----1---1---1-|
D|-3-------4-----4---4-----4---|3-----4-----4-------4---|
A|-----------------------------|------------------------|
E|-----------------------------|------------------------|
				
Tap to rate this tab
# A B C D E F G H I J K L M N O P Q R S T U V W X Y Z