Song name
# A B C D E F G H I J K L M N O P Q R S T U V W X Y Z

Rodrigo Amarante - Man tab

Song: "Maná"
Artist: Rodrigo Amarante
Album: Cavalo [2013]

Intro: 

       (D7)                               (G7)
e---------------------------|-----3-3--3-3--3-3--3-3--|
B--3-3--3-3--3-3---3-3-3-3--|-----6-6--3-3--6-6--5-3--|
G--5-5--5-5--5-5---5-5-5-5--|-2x--4-4--4-4--4-4--4-4--|2x
D--4-4--4-4--4-4---4-4-4-4--|-----3-3--3-3--3-3--3-3--|
A--5-5-------5-5------------|-----5-5--5-5--5-5--5-5--|
E-------5-5--------5-5-5-5--|-----3-3--3-3--3-3--3-3--|
* the whole sequence is played four times

  (D7)
Êeeeeee Manáa
Hoje o ponto é pra cura de amor
Êeeeeee Manáa oOmar
Hoje a dança te quebra o feitiço

                G7                    D7  
Deixa a porta bater, Deixa o vento levar
                G7                    D7
Quem não desce a ribeira, não chega no mar
             G7                D7
O amor é coragem é feitiço da sorte
                  G7               D7
Mas o ponto mais forte é saber se amar

  (D7)
Êeeeeee Manáa
Hoje o ponto é pra cura de amor
Êeeeeee Manáa oOmar
Hoje a dança te quebra o feitiço

SOLO:
   D7                                      G7                
e--------------------------------------------------------------|
B--------------------------------------------------------------|
G-11h12p11h12p11-------------------11h12p11h12p11---7h9p7h9p7--|
D-----------------10h12p10h12p10-------------------------------|
A--------------------------------------------------------------|
E--------------------------------------------------------------|
    D7
e-------------------------------------------------------|
B-12h13p12h13p12----------------------------------------|
G----------------11h12p11h12p11---7h9p7h9p7--5h7p5h7p5--|
D-------------------------------------------------------|
A-------------------------------------------------------|
E-------------------------------------------------------|

  (D7)
Êeeeeee Manáa
Hoje o ponto é pra cura de amor
Êeeeeee Manáa oOmar
Hoje a dança te quebra o feitiço

(Fife's Solo)

  (D7)
Êeeeeee Manáa
Hoje o ponto é pra cura de amor
Êeeeeee Manáa oOmar
Hoje a dança te quebra o feitiço


CHORDS: 

    D7   G7
e--------3---|
B---3----3---|
G---5----4---|
D---4----3---|
A---5----5---|
E--------3---|
Tap to rate this tab
 
# A B C D E F G H I J K L M N O P Q R S T U V W X Y Z