Song name
# A B C D E F G H I J K L M N O P Q R S T U V W X Y Z

Rodrigo Amarante - Nada Em Vo tab

Song: "Nada em Vão"
Artist: Rodrigo Amarante
Album: Cavalo [2013]

Riff:
e-----------------------------|
B-5--5-3-5--------------------|
G-----------4-2-4-------------|
D------------------4-2-2-0-0--|
A-----------------------------|
E-----------------------------|

Intro: Riff 2x

  D9(6)   G6   D9(6)   G6    D9(6)  G6   D9(6) G6
Nananananana, Nananananana, Nananananana Ooooooo

 D G   D  G             D           G
Nada em vão, no espaço entre eu e você
      D               G
No silêncio um grito. O sim e o não
 D G D G                   D             G
Eis então, que o pedaço de mim que é só teu
   D           G
É intento sem tanto intenção

 Em        A    G#  G
Quando eu vejo você
 Em         A
Me olhando assim
 Em      A
Vendo em mim
 Em      A
O que eu vejo em ti

(Riff 2x)

  D9(6)   G6   D9(6)   G6    D9(6)  G6   D9(6) G6
Nananananana, Nananananana, Nananananana Ooooooo

 D G   D  G             D        G
Qual razão.É medir o imenso da sede
        D        G
Se cede o senso, à sensação

D G D  G                 D       G
Ilusão. É a veste que faz-te volver
         D                G
Que me envolve e verte. Afeto e afã

 Em        A    G#  G
Quando eu vejo você
 Em         A
Me olhando assim
 Em      A
Vendo em mim
 Em      A
O que eu vejo em ti

End: D G6 (4x)


CHORDS:
   D9(6)  G6   D   G  G#  Em  A  
e---------------------------------|
B---5------5----------------------|
G---6------6----------------------|
D---4------4----------------------|
A---5------x---5-----------7------|
E----------3-------3--4-------5---|
Tap to rate this tab
# A B C D E F G H I J K L M N O P Q R S T U V W X Y Z