Song name
# A B C D E F G H I J K L M N O P Q R S T U V W X Y Z

Rodrigo Sousa - Acho Que Eu Gosto Dela tab

INTRO: G C

E ------------------------|
B ------------------------|
G -2/5--5--3--------------|
D ------------------------|
A ------------------------|
E ------------------------|

G

Ela vive dando em cima de mim
Ela vive dando em cima de mim

C

Então eu acho que gosto dela, ela é meu sonho, yeah!



A (Am A) (x2)


G


Hmmmmmmmmmmmmmmm!


G#

Escute bem! Não há ninguém como vocêêê.



                                    SOLO

E --1/11--12b-----------------------|
B --------12b--------------------15-|
G -----------------11h13b--17p15-15-|
D ----------------------------------|
A ----------------------------------|
E ----------------------------------|


D

Acho que eu gosto dela...
Tap to rate this tab
# A B C D E F G H I J K L M N O P Q R S T U V W X Y Z