Song name
# A B C D E F G H I J K L M N O P Q R S T U V W X Y Z

Rodrigo Sousa - Por Onde Anda Voc tab

POR ONDE ANDA VOCÊ?
RODRIGO SOUSA

E -------------------|
B -------------------|
G -------------------|
D --2--2--2--2-------|
A --2--2--2--2-------|
E --0--0--0--0-------|
(RIFF 1)

E --------------------------------|
B --------------------------------|
G --------------------------------|
D --3--3--3---4---4---4~~---------|
A --3--3--3---4---4---4~~---------|
E --0--0--0---0---0---0~~---------|
(RIFF 2)


17 de Fevereiro perguntam (RIFF 1)
A José Antônio onde ele esteve.
"Por onde anda você?" (RIFF 2)
Por onde...?
Ele contou que estava numa festa. (RIFF 1)
Foi dizer isso pra ele se calar e sumir da cozinha. (RIFF 2)

G                                        A

A vizinha já tava percebendo isso também!


"Por onde anda você meu filho?" (RIFF 1)
Por onde...?


                            ENTRADA DE SOLO
                  B9
E --7/3--3-3-3-|
B -------------|
G -------------|      x2
D -------------|
A -------------|
E -------------|


                           SOLO

E ---------------|
B ---------------|
G --9h12---------|        x2
D --------11-----|
A ---------------|
E ---------------|

E -------------------------------------------|
B -------------------------------------------|
G --12b-12b-12b-12b-12b--13b-13b-13b-13b-13b-|      x3
D -------------------------------------------|
A -------------------------------------------|
E -------------------------------------------|

E -x------|
B --------|
G ---9~~~~     x6
D --------|
A --------|
E --------|


Final: B B9(x2)
Tap to rate this tab
# A B C D E F G H I J K L M N O P Q R S T U V W X Y Z