Song name
# A B C D E F G H I J K L M N O P Q R S T U V W X Y Z

Rodrigo Y Gabriela - Orion tab

Rodrigo y Gabriela - Orion

Tuning: EADGBE


Intro (faded)

e----0---0------0---0-------------------------------------| (x5)
b----0---0------0---0-------3---3-------4---4-------------|
g---0---0---0--0---0---0----2---2-------4---4-------------|
d--2---2---2--2---2---2----4---4---4---4---4---4----------|
a-------------------------5---5---5---6---6---6-----------|
e---------------------------------------------------------|


e---------------------------------------------------------| (x6)
b---------------------------------------------------------|
g---------------------------------------------------------|
d------------------------------------------------7-x-x-7--|
a--5h7-----5h7-----5h7----5h7-----5h7-----5h7----5-x-x-5--|
e--0---00--0---00--0---0--0---00--0---00--0---0-----------|


e---------------------------------------------------------|
b---------------------------------------------------------|
g---------------------------------------------------------|
d-x-x-7-7-8-x-x-8-x-x-8-8---------------------------------|
a-x-x-5-5-6-x-x-6-x-x-6-6---------------------------------|
e---------------------------------------------------------|


e----------------------|----------------------------------| (x3)
b----------------------|----------------------------------|
g----------------------|----------------------------------|
d--2---5--xxxx-5---2---|--xxxx-2---5-xxxx-5---2-----------|
a--0-2-3--xxxx-3-2-0---|--xxxx-0-2-3-xxxx-3-2-0-----------|
e----0-----------0-----|---------0----------0-------------|


Guitar 2:
e---------------------------------------------------------| (x7)
b---------------------------------------------------------|
g---------------------------------------------------------|
d--22222-22222-22222-22222-223332-------------------------|
a---------------------------------------------------------|
e---------------------------------------------------------|

Guitar 1:
e---------------------------------------------------------| (x4)
b---------------------------------------------------------|
g---------------------------------------------------------|
d--xx-2---5----------xx-5---2-----------------------------|
a--xx-0-2-3-2-3-2-2--xx-3-2-0-2-3-2-2---------------------|
e-------0---0-1-0-0-------0---0-1-0-0---------------------|


e---------------------------------------------------------| (x2)
b---------------------------------------------------------|
g---------------------------------------------------------|
d------------------------------------------------7-x-x-7--|
a--5h7-----5h7-----5h7----5h7-----5h7-----5h7----5-x-x-5--|
e--0---00--0---00--0---0--0---00--0---00--0---0-----------|


e---------------------------------------------------------|
b---------------------------------------------------------|
g---------------------------------------------------------|
d-x-x-7-7-8-x-x-8-x-x-8-8---------------------------------|
a-x-x-5-5-6-x-x-6-x-x-6-6---------------------------------|
e---------------------------------------------------------|


Solo:
e---------------------------------------------------------| (x2)
b---------------------------------------------------------|
g---------------------------------------------------------|
d--5p4-7-4-4h5p4-7--5p4-7-4-4h5p4-7--554--5544------------|
a---------------------------------------5-----------------|
e---------------------------------------------------------|


e---------------------------------------------------------|
b---------------------------------------------------------|
g------------------------------------------14h16-14-------|
d--4/5--5/7--7/9--9/12--12/14--1414--14-17----------------|
a---------------------------------------------------------|
e---------------------------------------------------------|


e-------------------------------------15h171717-15h17-1717-|
b-----------------14-19-14h16-16-14-16---------------------|
g--17161716-1212-------------------------------------------|
d----------------------------------------------------------|
a----------------------------------------------------------|
e----------------------------------------------------------|


e---------15p14p12-15p14p12-15p12-15p14p12-15p14p12-15p12-|
b--15-17--------------------------------------------------|
g---------------------------------------------------------|
d---------------------------------------------------------|
a---------------------------------------------------------|
e---------------------------------------------------------|


e-191919---------------------------------------14----14---|
b--------1919-17p15--15--1919-17p15--15------15----15-----|
g------------------16--------------16--16--16----16-------|
d---------------------------------------------------------|
a---------------------------------------------------------|
e---------------------------------------------------------|


e----------14----14------191917--1415-1715-1415--12h14----|
b----15--15----15----15-----------------------------------|
g--16--16----16----16-------------------------------------|
d---------------------------------------------------------|
a---------------------------------------------------------|
e---------------------------------------------------------|


e--10h12-9h10-7h9-5h7-3h5-2--3p2--------------------------|
b--------------------------------5-3-0-3--3/7-5p3p0-3/5---|
g---------------------------------------------------------|
d---------------------------------------------------------|
a---------------------------------------------------------|
e---------------------------------------------------------|


e-------------------------------------0-------------------|
b--3-2-2h3-0--------------------------0-------------------|
g-------------------------------------0-------------------|
d---------------4-xxx-4-2-xxxx--------2-------------------|
a---------------2-xxx-2-0-xxxx-2-xxxx-2-------------------|
e------------------------------4-xxxx---------------------|

Guitar 1:
e---------------------------------------------------------|
b---------------------------------------------------------|
g---------------------------------------------------------|
d----4---2----2----2-------4---2----2---------------------|
a---4-----0--2-2----------4-----0--2-2--------------------|
e--2----5---------0-0----2----5---------0~----------------|


On the third repetition it goes:
e------------------------------------------------------|
b------------------------------------------------------|
g------------------------------------------------------|
d----4---2----2----2-------4---2---2222222-------------|
a---4-----0--2-2----------4-----0----------4-2-0-------|
e--2----5---------0-0----2----5------------------2-0---|


Guitar 2:
e----------------------------|-----------------------------|
b----------------------------|-----------------------------|
g---4b(6)-4b(6)-4br---2\1/2--|--4b(6)-4b(6)-4br---2\1/2----|
d----------------------------|-----------------------------|
a----------------------------|-----------------------------|
e----------------------------|-----------------------------|


e---------------------------------------------------------|
b---------------------------------------------------------|
g---------------------------------------------------------|
d--2/4-2/4--2-2-2-4/6-6/7-7/9------------------9--9/11-9--|
a-------------------------------7b(9)--9-11-12------------|
e---------------------------------------------------------|
                                       PM.......

e---------------------------------------------------------|
b---------------------------------------------------------|
g------6---------------11\9/11~--11\9/11--6\4/6-----------|
d--7h9---4-4-4/7---------------------------------5/7-5/7--|
a---------------------------------------------------------|
e---------------------------------------------------------|


e-------------------|-------------------------------------|
b-------------------|-------------------------------------|
g-------------------|-9999-999-9\6-6-6-777-4\1-4-6-4b(6)--|
d--2-2-2--6-6/7-7/9-|-------------------------------------|
a-------------------|-------------------------------------|
e-------------------|-------------------------------------|


e---------------------------------------------------------|
b---------------------------------------------------------|
g---------------------------------------------------------|
d--2/4-2/4--2-2-2-4/6-6/7-7/9------------------9--9/11-9--|
a-------------------------------7b(9)--9-11-12------------|
e---------------------------------------------------------|


Thats all I got so far but I will be updating it as soon as I figure out the rest..
Tap to rate this tab
 
# A B C D E F G H I J K L M N O P Q R S T U V W X Y Z