Song name
# A B C D E F G H I J K L M N O P Q R S T U V W X Y Z

Rodrigo Y Gabriela - Logos tab

----------------------------------------------------------------------------
			             LOGOS - Rodrigo y Gabriela
----------------------------------------------------------------------------

Tabbed by: Sonia O'Reilly

Email: soseva_93@hotmail.fr

Tuning: Standard

Gabriela's Part (listen to the music to get the rythme)

E-----------------------------------------------------------------|
B-----------------------------------------------------------------|
G-----1-----1---------1-----1---------2-----2---------2-----2-----|  x2
D---------------------------------------------------2-----2-----2-|
A---2-----2-----2---2-----2-----2---3-----3-----3-0-----0-----0---|
E-0-----0-----0---0-----0-----0---0-----0-----0-------------------|


E-----------------------------------------------------------------|
B-----0-----0---------0-----0---------1-----1---------------------|
G-----------------------------------------------------2-----2-----| x2
D-----------------------------------2-----2-----2---2-----2-----2-|
A---2-----2-----2---2-----2-----2-3-----3-----3---0-----0-----0---|
E-0-----0-----0---0-----0-----0-----------------------------------|


   barre en 1  barre en 4  barre en 3
E--------------------------------------------------- |
B-----1-----1-----4-----4--------------------------- |
G-----------------------------3-----3--------------- |
D---3-----3-----6-----6-------------------4/6\4-3--- |
A-1-----1-----4-----4-------6-----6-----4----------- |
E-------------------------4-----4-----2------------- |
                                                     |
                                                     |   x2
   barre en 1  barre en 4  barre en 3                |
E--------------------------------------------------- |
B-----1-----1-----4-----4--------------------------- |
G-----------------------------3-----------3--------- |
D---3-----3-----6-----6----------------------------- |
A-1-----1-----4-----4-------6---6---6---6---6---6--- |
E-------------------------4-------4---4-------4----- |

E--------------------------------------------------- |
B-----1-0-1-------1-0-1-------1-0-1----------------- |
G--------------------------------------------------- |
D---2-------2---2-------2---2-------2-----3-----2--- |
A-0-------------------------------------3-----2----- |
E-------------3-----------2-----------1-----0------- |
                                                     |   x2
E--------------------------------------------------- |
B-----1-0-1-------1-0-1-------3/5\3----------------- |
G---------------------------2----------------------- |
D---2-------2---2-------2-0---------2-----2-----2--- |
A-0-------------------------------------2-----2----- |
E-------------3-----------------------0-----4------- |

E------------------------------|
B-----1-----0----1-----0-------|
G------------------------------|   x4
D---2-----2-----2----2---2-----|
A-0-----0-----0----0-----------|
E--------------------------0-3-|

And then all over again during Rodrigo's solo (maybe coming!)

If you see anything wrong, please contact me, but i'm quite sure this is acurate!

Enjoy ;D

************************************

| /   slide up
| \   slide down

************************************
Tap to rate this tab
# A B C D E F G H I J K L M N O P Q R S T U V W X Y Z