Song name
# A B C D E F G H I J K L M N O P Q R S T U V W X Y Z

Rodrigo Y Gabriela - Chac Mool tab

____________________________________________________________________________________
Tab description
____________________________________________________________________________________

Song:   Chac Mool
Artist: Rodrigo y Gabriela
Album:  11:11

Tabber: Lionel Ringenbach
Email:  ilovetrees@free.fr
Date:   April 24th, 2010

This the easiest Rod y Gab song to play but is still a real pleasure to play.
Using a looper to play this song is a real help!

For any comments or suggestion you can use the mail address above.


_________________________________________________________________________________
Rodrigo: standard tuning, no capo
____________________________________________________________________________________

This intro is to be played 8 times all along the song

       Em        G         ?         Em
	   
e|-----------------------------------------|
B|-----------------------------------------|	   	   
G|--------0---------0---------2---------0--|	
D|------2---------0---------3---------2----|	
A|----2---------3---------4---------2------|	
E|--0---------2---------2---------0--------|	

After the 6th intro riff, Rodrigo joins Gabriela's riff with this part
	
e|------------------------------------------------------------------------------------|
B|------------------------------------------------------------------------------------|
G|--12-12-11-12/14-12--16-16-14-14/16\14-12--11/16-16-16-14-14--12-12-11-12-12/14-12--|
D|------------------------------------------------------------------------------------|
A|------------------------------------------------------------------------------------|
E|------------------------------------------------------------------------------------|


____________________________________________________________________________________
Gabriela: standard tuning, no capo
____________________________________________________________________________________

After the 4th intro riff, Gabriela starts playing this part all along the song

e|-----------------------------------------------------------------------|
B|-----------------------------------------------------------------------|
G|--9-9-7-9/11-9--12-12-11-11/12\11-9--7/12-12-12-11-11--9-9-7-9-9/11-9--|
D|-----------------------------------------------------------------------|
A|-----------------------------------------------------------------------|
E|-----------------------------------------------------------------------|


____________________________________________________________________________________
Chords
____________________________________________________________________________________

Em  (0 2 2 0 0 0)
G   (2 3 0 0 2 2)
Tap to rate this tab
 
# A B C D E F G H I J K L M N O P Q R S T U V W X Y Z