Song name
# A B C D E F G H I J K L M N O P Q R S T U V W X Y Z

Rodrigo Y Gabriela - Chac Mool tab

Song:   Chac Mool
Artist: Rodrigo y Gabriela
Album:  11:11


Transcribed by: Collin Close
Email:  crc922@hotmail.com
Date:   May 10, 2010


Lead (Rodrigo): (E,A,D,G,B,e)
Rhythm: (Gabriela): (E,A,D,G,B,e)

Lead (Rodrigo)
(0:00) Em        G         F#m         Em   
e|----------------------------------------------|
B|----------------------------------------------|
G|-------0---------0---------2---------0--------|
D|-----2---------0---------4---------2----------|
A|---2---------2---------4---------2------------|
E|-0---------3---------2---------0--------------|

       Em        G         F#m         Em   
e|----------------------------------------------|
B|----------------------------------------------|
G|-------0---------0-------------------0--------|
D|-----2---------0---------4-4-------2----------|
A|---2---------2---------4---------2------------|
E|-0---------3---------2---------0--------------|

       Em        G         F#m         Em   
e|----------------------------------------------|
B|----------------------------------------------|
G|-------0---------0---------2---------0--------|
D|-----2---------0---------4---------2----------|
A|---2---------2---------4---------2------------|
E|-0---------3---------2---------0--------------|

       Em        G         F#m         Em   
e|----------------------------------------------|
B|----------------------------------------------|
G|-------0---------0-------------------0--------|
D|-----2---------0---------4-4-------2----------|
A|---2---------2---------4---------2------------|
E|-0---------3---------2---------0--------------|

This phrase is then looped throughout the rest of the song

Lead (Rodrigo)
(0:51)
e|----------------------------------------------| \
B|----------------------------------------------| |
G|-12--12-11-12-12/14-12--16--16-14-14/16/14-12-| |
D|----------------------------------------------| |
A|----------------------------------------------| |
E|----------------------------------------------| |
                                                  |x2
e|----------------------------------------------| |
B|----------------------------------------------| |
G|-11-11/16-16-16-14-14--12--12-11-12-12/14-12--| |
D|----------------------------------------------| |
A|----------------------------------------------| |
E|----------------------------------------------| /

This phrase is played twice solo, and then is continued during Gabrielas phrase

Rhythm (Gabriela)
(1:16)
e|----------------------------------------| \
B|----------------------------------------| |
G|-9--9-7-9-9/11-9--12--12-11-11/12\11-9--| |
D|----------------------------------------| |
A|----------------------------------------| |
E|----------------------------------------| |
                                            |x2
e|----------------------------------------| |
B|----------------------------------------| |
G|-7--7/12-12-12-11-11--9--9-7-9-9/11-9---| |
D|----------------------------------------| |
A|----------------------------------------| |
E|----------------------------------------| /
                       |
                       *
*At this point during the second time, the song has almost completely faded out 
into a lead-in to Atman, the next song on the album
Tap to rate this tab
# A B C D E F G H I J K L M N O P Q R S T U V W X Y Z