Song name
# A B C D E F G H I J K L M N O P Q R S T U V W X Y Z

Rodrigo Y Gabriela - Logos tab

ok so i worked at least a whole day's worth of my free time on this and i'm pretty 
sure ill never want to do this again....i really felt blind just listening to the 
song and learning it........

anyway i hope that these tabs work out for everyone!
Enjoy!


e---12-------------------------------------12--------------------------------------	|
B--------12--9--10----------------------------12--9--10----------------------------	|
G-----------------------9--11---11--9-----------------------9--11---11-------------	|
D----------------------------------------------------------------------------------	|
A----------------------------------------------------------------------------------	|
E----------------------------------------------------------------------------------	|

e----------------------------------------------------------------------------------	|
B-----------12--------12--------------------12--------12---------------------------	|
G-------13--------13--------13---------13--------13--------13----------------------	|
D---14--------14--------14---------12--------12--------12--------------------------	|
A----------------------------------------------------------------------------------	|
E----------------------------------------------------------------------------------	|
                                                                                    |      x2
e----------------------------------------------------------------------------------	|
B-----------12--------12------------------7-------7--------------------------------	|
G-------12--------12--------12--------9-------9-------9----------------------------	|
D---10--------10--------10---------7------7-------7--------------------------------	|
A----------------------------------------------------------------------------------	|
E----------------------------------------------------------------------------------	|

e---6------------------------------------------------------------------------------	|
B----6------6h9p6------------------------------------------------------------------	|
G-----6h8-----------6h8--8/10-10------6h8-9---6--6----6--8-------------------------	|
D---------------------------------------8------------------8-----------------------	|
A----------------------------------------------------------------------------------	|
E----------------------------------------------------------------------------------	|

e---6----------------------9----8--------------------------------------------------	|
B----6--------6h9p6--------------6-------------6-6-6-------------------------------	|
G-----6---8------------------------------------------------------------------------	|
D----------------------------------------------------------------------------------	|
A----------------------------------------------------------------------------------	|
E----------------------------------------------------------------------------------	|

e---6----------------------------------------13-11-9-8h9p8-------------------------	|
B----6------6h9p6---------------------------------------------11-------------------	|
G-----6h8-----------6h8--8/10-10---10----------------------------------------------	|
D----------------------------------------------------------------------------------	|
A----------------------------------------------------------------------------------	|
E----------------------------------------------------------------------------------	|

e---6------------------------------------------------------------------------------	|
B----6------6h9p6------------------------------------------------------------------	|
G-----6h8------------6--6h8----------6h8-------------------------------------------	|
D--------------------------------8--p6---------8---6-------------------------------	|
A----------------------------------------------------------------------------------	|
E----------------------------------------------------------------------------------	|

e----------7-7h8p7--------------------------------7-7h8p7--------------------------	|
B------10-----------8-------8p7------------8-10------------10----------------------	|
G----9-----------------9--9--------7-9-10------------------------------------------	|
D--7-------------------------------------------------------------------------------	|
A----------------------------------------------------------------------------------	|
E----------------------------------------------------------------------------------	|

e----------------------------------------------------------------------------------	|
B----------------------------------------------------------------------------------	|
G---9-----------------9---11----7h9/10--9--7h9p7-----------------------------------	|
D-------10--7--10--------------------------------------10--------------------------	|
A----------------------------------------------------------------------------------	|
E----------------------------------------------------------------------------------	|

e----------7-7h8p7-----7h8--8/10--10-----------5-7--8h10--10/12--------------------	|
B------10------------8--------------------------6-8--------------------------------	|
G----9--------------------------------------7-9------------------------------------	|
D--7-------------------------------------------------------------------------------	|
A----------------------------------------------------------------------------------	|
E----------------------------------------------------------------------------------	|

e---12h15--------------------------------------------------------------------------	|
B-----------13----12h13------------------------------------------------------------	|
G---------------------------14----12h14--------------------------------------------	|
D-------------------------------------------12/10--10h12---------------------------	|
A----------------------------------------------------------------------------------	|
E----------------------------------------------------------------------------------	|

e----------------------------------------------	|
B--------5-----3-------5----3------------------	|
G----------------------------------------------	|      x4
D-----2-----2-------2----2---------------------	|
A---0------0------0-----0----------------------	|
E-------------------------------------0h3------	|
Tap to rate this tab
# A B C D E F G H I J K L M N O P Q R S T U V W X Y Z