Rodrigo Y Gabriela - Triveni tab

Rodrigo y Gabriela
Triveni
From their album "11:11"

Standard tuning

I didn't tab rhythms exactly or times played, but I did note transitions. It's really 
that hard of a song, but very fun to play!

Intro

--12----------------------------------11------------------|
-----12--------13--10-12--------10-12----12--101210-------|
--------12--9------------11--11---------------------12-9--|
----------------------------------------------------------|
----------------------------------------------------------|
----------------------------------------------------------|

-----7-10-9-8-7-676-----------------------|
---8----------------7------7-10-8---7-----|
-9-----------------------8--------8---9---|
-----------------------9------------------|
------------------------------------------|
------------------------------------------|

-12-12---------------------------------11--------------------|
------12--------13--10-12--------10-12----12-10--------------|
---------12--9------------11--11----------------12-11-10-9---|
-------------------------------------------------------------|
-------------------------------------------------------------|
-------------------------------------------------------------|

-----7-10-9-8----8-787-------------------------|
---8----------10-------7------7-10-8---7-------|
-9--------------------------8--------8------9--|
--------------------------9--------------------|
-----------------------------------------------|
-----------------------------------------------|

Repeat Intro section

---------|----------------------------------|
---------|---------------------------0------|
---------|-------------------------0--------|
-10------|------9-898-------7---------------|
----10-9-|-7-10-------9-------10-7----------|
---------|--------------8-7-----------------|

-----------------------------0-----------|
---------------------------0-------------|
-------------------------0---------------|
------9-898-------7----------------------|
-7-10-------9-------10-7-----------------|
--------------8-7------------------------|

--------------------------------|---------------------------|
---------------------------0----|---------------------------|
-------------------------0------|---------------------------|
------9-898-------7-------------|---------------------------|
-7-10-------9-------10-7--------|-7-7-8-9-676-------10-9-7--|
--------------8-7---------------|--------------8-7----------|

Repeat intro

Sleezy riff
--------------------------------------------|
--------------------------------------------|
--------------------------------------------|
--------------------------------------------|
--5h7-x-7-x-7-5h7-x-7-x-7-5h7-----------7---|
------------------------------5h7-3h5-0-----|

Chords behind that riff(Iím pretty sure this is it till the last time)
-0----0---0---0-----------------------------|
-0----0---0---0-----------------------------|
-0----3---2---0-----------------------------|
-2----4---3---2-----------------------------|
-2----4---3---2-----------------------------|
-0----0---0---0-----------------------------|

                                      End on
--------------------------------------|-----|
--------------------------------------|-----|
---5--5-----7--7------9--7-----9--7---|---7-| Repeat
--7--7--7--7--7--7---7--7--7--7--7--7-|--7--|
-0--0--0--0--0--0---9--9--9--9--9--9--|-9---|
--------------------------------------|-----|


----------------------------------------|
--12-12----------------101210-----------|
--------11-11--9-11-12--------12-11-----|
----------------------------------------|
----------------------------------------|
----------------------------------------|

----------------------------------------|
--12-----------7-10-8-7-----------------|
-----11-797---7-------------------------|
-------------9--------------------------|
----------------------------------------|
----------------------------------------|

----------------------------------------|
--12-12----------------101210-----------|
--------11-11--9-11-12--------12-11-----|
----------------------------------------|
----------------------------------------|
----------------------------------------|

----------------------------------------|
-----------88-8--10---------------------|
--9-7---7-----------9-7-----------------|
------9---------------------------------|
----------------------------------------|
----------------------------------------|


------------------|--------------------------------|
------------------|--------------------------------|
-7--9-797--9--7-9-|--11--12--111211--12--11-12-----|
------------------|--------------------------------|
------------------|--------------------------------|
------------------|--------------------------------|

--0-0-0-0-0-0-0-0-0---------------------|
----------------------------------------|
-4-5-4-5-4-5-7-5-4----------------------|
----------------------------------------|
----------------------------------------|
----------------------------------------|


--0-0-0-0---0--0--0--0--0--0------------|
----------------------------------------|And so on..
-7-9-7-9--11-12-11-12-14-12-------------|
----------------------------------------|
----------------------------------------|
----------------------------------------|

--0-0-0-0---0--0--0--0------------------|
----------------------------------------|
-4-4-4-4--11-11-11-11-------------------|
----------------------------------------|
----------------------------------------|
----------------------------------------|

Jam these chords
-12--11---------------------------------|
-12--10---------------------------------|
-12--11---------------------------------|
----------------------------------------|
----------------------------------------|
----------------------------------------|


This part is more than likely wrong.
------------------------------------------|
-------12-10------------------------------|
-----9-------12-9-------------------------|
---9--------------9----9-7---------5------|
----------------------7---10-7--5-7-------|
---------------------7--------7-----------|


----------------------------------|
---------------------------0------|
-------------------------0--------|
------9-898-------7---------------|
-7-10-------9-------10-7----------|
--------------8-7-----------------|

-----------------------------0-----------|
---------------------------0-------------|
-------------------------0---------------|
------9-898-------7----------------------|
-7-10-------9-------10-7-----------------|
--------------8-7------------------------|

--------------------------------|---------------------------|
---------------------------0----|---------------------------|
-------------------------0------|---------------------------|
------9-898-------7-------------|---------------------------|
-7-10-------9-------10-7--------|-7-7-8-9-676-------10-9-7--|
--------------8-7---------------|--------------8-7----------|


---0---------------------------0---0----|
--0--0------------------------0---0-----|
-9--9--898---8-11-8---8-11-8-9---9------|
-----------9--------9-------------------|
----------------------------------------|
----------------------------------------|

Then back to the intro part.
Tap to rate this tab
 
# A B C D E F G H I J K L M N O P Q R S T U V W X Y Z