Guitaretab - guitar tabs
Song name
# A B C D E F G H I J K L M N O P Q R S T U V W X Y Z

Rodrigo Y Gabriela - Hanuman tab

@Band : Rodrigo Y Gabriela
@Album : 11:11
@Song : Hanuman
@Author : Pascal N.

Intro (0:00 - 0:16)
---------------------------------------------|
---------------------------------------------|
-9---------------------9---------------------|
-9-----------7-9-------9-----------7-9-------|
-7-----5h7---7-9--10-9-7-----5h7---7-9-------|
-0-0-0-----0-5-7---------0-0-----0-5-7-0-0-0-|

-------------------------------------------|
-------------------------------------------|
-9---------------------9-------------------|
-9-----------7-9-------9---5-4--0-0--5-5-4-|
-7-----5h7---7-9--10-9-7---7-5--0-0--4-3-2-|
-0-0-0-----0-5-7---------------------------|

-------------------------------------------|
-------------------------------------------|
-9---------------------9-------------------|
-9-----------7-9-------9---------7-9-------|
-7-----5h7---7-9--10-9-7-----5h7-7-9-------|
-0-0-0-----0-5-7---------0-0-----5-7-0-0-0-|

-----------------------------------------------------|
-----------------------------------------------------|
-9---------------------9-----------------------------|
-9-----------7-9-------9---5-4--0-0-0--5---5---4---2-|
-7-----5h7---7-9--10-9-7---7-5--0-0-0--4---3---2---2-|
-0-0-0-----0-5-7-------------------------0---0---0-0-|


0:23 - 0:40
-------------------------------------------|
---8----------7-----------8----------7-8-7-|
-9--------8-9---8-------9--------8-9-------|
-----10-9---------9---------10-9-----------|
-------------------------------------------|
-------------------------------------------|

------------------------------------------|
---8----------7---------------------------|
-9--------8-9---8--------------8-9-8------|
-----10-9---------9-----7-9-10-------10-9-|
------------------------------------------|
------------------------------------------|

-------------------------------------------|
---8----------7-----------8----------7-8-7-|
-9--------8-9---8-------9--------8-9-------|
-----10-9---------9---------10-9-----------|
-------------------------------------------|
-------------------------------------------|

----------------------------------------8--7-8-7--7-8-7-|
---8----------7--------------------7-10-----------------|
-9--------8-9---8----------------8----------------------|
-----10-9---------9-----7---7-10------------------------|
--------------------------7-----------------------------|
--------------------------------------------------------|


0:40 - 1:10
--------------------------------|
--------8---8-7------7-10-8-7---|
-9---9----9--------8----------8-|
---9-------------9--------------|
--------------------------------|
--------------------------------|

-----------------------------------------------|
--------8---8-7---12-12-12--10-10-10--8-8-8--7-|
-9---9----9------------------------------------|
---9-------------------------------------------|
-----------------------------------------------|
-----------------------------------------------|

--------------------------------|
--------8---8-7------7-10-8-7---|
-9---9----9--------8----------8-|
---9-------------9--------------|
--------------------------------|
--------------------------------|

----------------------------------------------------------|
---------------------------------------12-0-11-0-10-0-8-0-|
-9-9-9--11-11-11--12-12-12--14-14-14----------------------|
----------------------------------------------------------|
----------------------------------------------------------|
----------------------------------------------------------|

--------------------------------|
--------8---8-7------7-10-8-7---|
-9---9----9--------8----------8-|
---9-------------9--------------|
--------------------------------|
--------------------------------|

---------------------------------------------|
--------8---8-7---11-11---11-11---11-11---12-|
-9---9----9-------------9-------9-------9----|
---9-----------------------------------------|
---------------------------------------------|
---------------------------------------------|

--------------------------------|
--------8---8-7------7-10-8-7---|
-9---9----9--------8----------8-|
---9-------------9--------------|
--------------------------------|
--------------------------------|

--------------------------------------------------------------------------------------|
-5-7-5-0--7-8-7-0--8-10-8-0--10-12-10-0--12-13-12-0--11-12-11-0--10-11-10-0--8-10-8-0-|
--------------------------------------------------------------------------------------|
--------------------------------------------------------------------------------------|
--------------------------------------------------------------------------------------|
--------------------------------------------------------------------------------------|


1:10 - 1:24
-------------------------------------------------------------|
----8----8---------------------------------------------------|
-9----9----9-8---------------------------------------------8-|
---------------9--9-7-------------------------------7-10-9---|
----------------------10-9-10-7--10-7--10-7-6---6-9----------|
----------------------------------------------7--------------|

-----------------------------------------------------------|
---8----8--------------------------------------------------|
-9---9----9-8----------------------------------------------|
--------------9--9-7-----------9-x-9--10-10-9--9-9-9-9-9-9-|
---------------------10-9-10---7-x-7--10-10-9--7-7-7-7-7-7-|
---------------------------------------8--8-9--7-7-7-7-7-7-|

[ Tab from: http://www.guitaretab.com/r/rodrigo-y-gabriela/246821.html ]
1:24 - 1:53
-----------------------------------|
-----------------------------------|
-----------------------------------|
-----10-9--7-10-9----10-9----------|
---7---------------9-------9-10-12-|
-0---------------------------------|
x3

-----------------------------------|
-----------------------------------|
-----------------------------------|
-----10-9--7-10-9----10-9--12-10-9-|
---7---------------9---------------|
-0---------------------------------|

---------------------------------------|
---13-12--10-13-12-----13-12-----------|
-9------------------11--------11-12-14-|
---------------------------------------|
---------------------------------------|
---------------------------------------|
x2

------------------------------------------|
---13-12--10-13-12-----13-12--------------|
-9------------------11--------11-12-14--9-|
------------------------------------------|
------------------------------------------|
------------------------------------------|

------------|
-12-11-10-8-|
------------|
------------|
------------|
------------|


1:53 - 2:24
-12---8--8--7-     -7--5---8--7-     -7---8--12--11-|
-12--10--8--7-     -8--5--10--7-     -8--10--13--12-|
-12---9--9--8-     -9--5---9--8-     -9---9--14--11-|
--------------     -------------     ---------------|
--------------     -------------     ---------------|
--------------     -------------     ---------------|
x4                 x3


2:24 - 2:38
-12-15-12-0--------------------------------------------------------7-8-7-0--8-11-8-0-|
------------12-15-12-0-----------------------------------8-10-8-0--------------------|
-----------------------12-14-12-0--11-12-11-0--9-11-9-0------------------------------|
-------------------------------------------------------------------------------------|
-------------------------------------------------------------------------------------|
-------------------------------------------------------------------------------------|

-12-15-12-0--------------------------------------------------------7-8-7-0--7-8-7-0-|
------------12-15-12-0-----------------------------------8-10-8-0-------------------|
-----------------------12-14-12-0--11-12-11-0--9-11-9-0-----------------------------|
------------------------------------------------------------------------------------|
------------------------------------------------------------------------------------|
------------------------------------------------------------------------------------|

-12-15-12-0--------------------------------------------------------7-8-7-0--5-7-5-0-|
------------12-15-12-0-----------------------------------8-10-8-0-------------------|
-----------------------12-14-12-0--11-12-11-0--9-11-9-0-----------------------------|
------------------------------------------------------------------------------------|
------------------------------------------------------------------------------------|
------------------------------------------------------------------------------------|

-5-7-8-0--7-8-10-0--8-10-12-0--10-12-14-0--12-14-15-0--14-15-17-0--19-19-19-19-|
-------------------------------------------------------------------------------|
-------------------------------------------------------------------------------|
-------------------------------------------------------------------------------|
-------------------------------------------------------------------------------|
-------------------------------------------------------------------------------|


2:59 - 3:15
-------------------------------------------|
---8----------7-----------8----------7-8-7-|
-9--------8-9---8-------9--------8-9-------|
-----10-9---------9---------10-9-----------|
-------------------------------------------|
-------------------------------------------|

------------------------------------------|
---8----------7---------------------------|
-9--------8-9---8--------------8-9-8------|
-----10-9---------9-----7-9-10-------10-9-|
------------------------------------------|
------------------------------------------|

-------------------------------------------|
---8----------7-----------8----------7-8-7-|
-9--------8-9---8-------9--------8-9-------|
-----10-9---------9---------10-9-----------|
-------------------------------------------|
-------------------------------------------|

----------------------------------------8--7-8-7--7-8-7-|
---8----------7--------------------7-10-----------------|
-9--------8-9---8----------------8----------------------|
-----10-9---------9-----7---7-10------------------------|
--------------------------7-----------------------------|
--------------------------------------------------------|


3:16 - 3:33
-------------------------------------------------------------|
----8----8---------------------------------------------------|
-9----9----9-8---------------------------------------------8-|
---------------9--9-7-------------------------------7-10-9---|
----------------------10-9-10-7--10-7--10-7-6---6-9----------|
----------------------------------------------7--------------|

---------------------------------------------------------------|
---8----8------------------------------------------------------|
-9---9----9-8--------------------------------------------------|
--------------9--9-7-----------9-x-9--10-10-9--9-9-9-9-9-9---9-|
---------------------10-9-10---7-x-7--10-10-9--7-7-7-7-7-7---7-|
---------------------------------------8--8-9--7-7-7-7-7-7---0-|


3:33 - 3:37
-------------------|
-------------------|
-------------------|
-5-4--0-0--5-5-4---|
-7-5--0-0--4-3-2-2-|
-----------------0-|
Related for Hanuman tab
Hanuman chords by Rodrigo Y Gabriela