Song name
# A B C D E F G H I J K L M N O P Q R S T U V W X Y Z

Rodrigo Y Gabriela - Logos tab

Rodrigo y Gabriela  Logos
Tabbed by Sara

Nice easy song. I saw a classical guitarist playing this on YouTube (name is MrDreadSoul
if you want to check it out  useful video). Anyway this is how he played it and it
sounds more correct to my ear.
Enjoy!

E-----------------------------------------------------------------|
B-----------------------------------------------------------------|
G-----1-----1---------1-----1---------2-----2---------2-----2-----|  x2
D-----------------------------------------------------------------|
A---2-----2-----2---2-----2-----2---3-----3-----3---3-----3-----3-|
E-0-----0-----0---0-----0-----0---0-----0-----0---5-----5-----5---|


E-----------------------------------------------------------------|
B-----------------------------------------------------------------|
G-----4-----4---------4-----4---------5-----5---------2-----2-----| x2
D-----------------------------------2-----2-----2---2-----2-----2-|
A---2-----2-----2---2-----2-----2-3-----3-----3---0-----0-----0---|
E-0-----0-----0---0-----0-----0-----------------------------------|


E--------------------------------------------------- |
B--------------------------------------------------- |
G-----5-----5-----8-----8--------------------------- |
D---3-----3-----6-----6-------8-----8-----4-6-4-3--- |
A-1-----1-----4-----4-------6-----6-----4----------- |
E-------------------------4-----4-----2------------- |
                                                     |   x2
E--------------------------------------------------- |
B--------------------------------------------------- |
G-----5-----5-----8-----8--------------------------- |
D---3-----3-----6-----6-------8-----------8--------- |
A-1-----1-----4-----4-------6---6---6---6---6---6--- |
E-------------------------4-------4---4-------4----- |

E--------------------------------------------------- |
B-------0-----------0-----------0------------------- |
G-----5---5-------5---5-------5---5----------------- |
D---2-------2---2-------2---2-------2-----3-----2--- |
A-0-------------------------------------3-----2----- |
E-------------3-----------2-----------1-----0------- |
                                                     |   x2
E-------------------------------0------------------- |
B-------0-----------0---------3---3----------------- |
G-----5---5-------5---5-----2-------2--------------- |
D---2-------2---2-------2-0---------------2-----2--- |
A-0-------------------------------------2-----2----- |
E-------------3-----------------------0-----4------- |

E------------------------------|
B------------------------------|
G-----5-----4-----5----4-------|   x4
D---2-----2-----2----2---2-----|
A-0-----0-----0----0-----------|
E--------------------------0-3-|

And repeat the whole thing.
Tap to rate this tab
 
# A B C D E F G H I J K L M N O P Q R S T U V W X Y Z