Song name
# A B C D E F G H I J K L M N O P Q R S T U V W X Y Z

Rodrigo Y Gabriela - Stairway To Heaven tab

|-5-7---8--7-5---7--5-7---8-10-8------8-10-12--10-8--7-------------|
|---------------------------------10-------10--------9-10-8--------|
|---------------------------------9--------10--------7-------5-----|
|-----7--------6--------5---------10---------------------------7---|
|---------------------------------9------------------------------0-|
|------------------------------------------------------------------|


|-----------------5-8-7-5---7---12-----------------------8--10-8-----|
|----------------5------------------10-------------10-12----------10-|
|---------------5----------------------9-12-11-9-8----------------9--|
|--------------7----------6---------------------------------------10-|
|-12*--7/8-7--0---------------------------------------------------9--|
|--------------------------------------------------------------------|


|-------------------------------------------|
|-----------------------------------------5-|
|----------9--7------5-----4--------------5-|
|---10-12------10---7-----6---------------5-|
|-10--9--8---------6-----5----5/6\5-3-----x-|
|-------------------------------------3/5-5-|


|---------------------------------------------8--10--------3--5---------|
|----------3-5--7-5---5---------10-12--------8------------3-------8-7-7-|
|---------5-----7--7--5-7-5-----------------9------------4--------7-----|
|--------5------0-----7-------------------10------------5---------0-----|
|-0-2-3---------------0------0-----------10------------5----------------|
|---------------------------------------8-------------3-----------------|


|----------------------------------------------------------8-12-8-----7-|
|------------------------7-8-7-5-------------------------10------10-10--|
|----------------------5---------7------9-10-9-7--------9----------9----|
|---10--9-----------------------------7----------10---------------------|
|-0---------10--5-7-5---------------8----------------0------------------|
|-----7---8-------------------------------------------------------------|


|-------8-10--12*-------3-5--7*--------------------------------------------------|
|------8------12*------3-----7*--------------------------------------------------|
|-----9---------------4--------------------5-----------8------------11----10---9-|
|---10---------------5---------------5---3-------8---6-------11---9--------------|
|--10---------------5--------------3---1-------6---4-------9----7------10---11---|
|-8----------------3-------------1-----------4-----------7-----------------------|


|-5-7---8-7-5---7--5-7---8-10-8---------------8-10-----12-10-8---7-------------|
|--------------------------------10--9--8--7-----------10--------9-10-8--------|
|--------------------------------9---8--7--6-----------10--------7-------5-----|
|-----7-------6--------5---------10--9--8--7--------0----------------------7---|
|--------------------------------9---8--7--6---------------------------------0-|
|--------------------------------------------------------------0---------------|


|----------------5-------7-------8-------2-------0--0--0---|
|---------------5-5-----5-5-----5-5-----3-3-----1-1--1--1--|
|--------------5---5---5---5---5---5---2---2---2---2--2--2-|
|-------------7-----7-6-----6-5-----5-4-----4-3------------|
|-12*--7/8-7-0-------0-------0-------0-------0-------------|
|----------------------------------------------------------|
             

|-0-----------------------------------------------5-|
|---1---------------------------------5----------5--|
|-----2---------0h2/5-4-0---------5-----5-------5---|
|-------3-----0-----------2-----5---5----------5----|
|---------0-----------------0-------------0---x-----|
|-----------3--------------------------------5------|
Tap to rate this tab
 
# A B C D E F G H I J K L M N O P Q R S T U V W X Y Z