Song name
# A B C D E F G H I J K L M N O P Q R S T U V W X Y Z

Rodrigo Y Gabriela - Tamacun tab

These are the main riffs and solo for Tamacun by Rodrigo y Gabriella

First part:

|-8-----------8---7----------7---10-|
|-----10---10---------8----8--------|
|--------9---------------7----------|
|-----------------------------------|
|-----------------------------------|
|-----------------------------------|

 
|-8---------8---10---8----7--------|
|-----8---8-------------------10-9-|
|-------9--------------------------|
|----------------------------------|
|----------------------------------|
|----------------------------------|


|-8-----------8---7----------7---10-|-8---------8---10---8----12---10----|
|-----10---10---------8----8--------|-----8---8-----------------------12-|
|--------9---------------7----------|-------9----------------------------|
|-----------------------------------|------------------------------------|
|-----------------------------------|------------------------------------|
|-----------------------------------|------------------------------------|


|-8-----------8---7-----------7---10-|
|-----10---10---------8-----8--------|
|--------9--------------7------------|
|------------------------------------|
|------------------------------------|
|------------------------------------|

                            
|-8---------8---10---8-----7-------|
|-----8---8--------------------9---|
|-------9------------------------9-|
|----------------------------------|
|----------------------------------|
|----------------------------------|


|-8-----------8---7-----------7---10-|
|-----10---10---------8-----8--------|
|--------9--------------7------------|
|------------------------------------|
|------------------------------------|
|------------------------------------|

  
|-8---------8---10--------------10---12-|
|-----8---8----------12------12---------|
|-------9---------------13--------------|
|---------------------------------------|
|---------------------------------------|
|---------------------------------------|

X2 Mute first time,on the second time let the notes ring out.
Second time round the ending differs slightly,as below:

|-8---------8---10-----------------|
|-----8---8----------12------------|
|-------9---------------13-12-10-9-|
|----------------------------------|
|----------------------------------|
|----------------------------------|

Second part:

|-12------------------|-------------------------|
|---13---12-13--15-13-|-----13-12h13p12---------|
|-----14--------------|---14-----------14-13-14-|
|---------------------|-14----------------------|
|---------------------|-------------------------|
|---------------------|-------------------------|


|-12---------------12-|----15-13-12---------|
|---13---12-13--15----|-------------15-13---|
|-----14--------------|-12---------------14-|
|---------------------|---------------------|
|---------------------|---------------------|
|---------------------|---------------------|


|-12------------------|-------------------------|
|---13---12-13--15-13-|-----13-12h13p12---------|
|-----14--------------|---14-----------14-13-14-|
|---------------------|-14----------------------|
|---------------------|-------------------------|
|---------------------|-------------------------|


|-------12---------------|
|-----13--15-13-12-------|
|---14-------------------|
|-14---------------------|
|------------------------|
|------------------------|


|-15-15---13-13---12-12---10-10------|
|-------------------------------9-10-|
|------14------12------10------------|
|------------------------------------|
|------------------------------------|
|------------------------------------|

X2

Solo:

|-----10-12-13-13-13-12-12-12-10-10-10-8-8-8-7-8-10-8-7-------------|
|---10--------------------------------------------------10-9--------|
|-10---------------------------------------------------------10-9-7-|
|-------------------------------------------------------------------|
|-------------------------------------------------------------------|
|-------------------------------------------------------------------|

|----7-10-8-7-7h8p7--7------------------12-------------------------|
|--9---------------10-----------------12--15-13-12-----------------|
|-9---------------------------------13------------14-13------------|
|------------------------------12-14-------------------15-14-12----|
|-------------------------11-14--------------------------------14--|
|-----------------------12-----------------------------------------|

|-------------------12-12-12---------13-13-13-12-12-12-|
|-15-15-15-13-13-13----------15-15-15------------------|
|------------------------------------------------------|
|------------------------------------------------------|
|------------------------------------------------------|
|------------------------------------------------------|

|-16-15-13-15-13h16p13-12-13-15-13-12-13-12-10-12-13-12-10-12 10---10-12-10---10----|
|---------------------------------------------------------------13----------13---12-|
|-----------------------------------------------------------------------------------|
|-----------------------------------------------------------------------------------|
|-----------------------------------------------------------------------------------|
|-----------------------------------------------------------------------------------|

|-8------8-10-8-8------8-12-8-8------8-10-8-0-10-12-10-0-8-10-8-0-|
|--10--10--------10--10--------10--10-----------------------------|
|----10------------10------------10-------------------------------|
|-----------------------------------------------------------------|
|-----------------------------------------------------------------|
|-----------------------------------------------------------------|

|-7---7-8-7-7---7-10-7-7---7-8-7-0-8-10-8-0-7-8-7-0-|
|--9-9-------9-9--------9-9-------------------------|
|---9---------9----------9--------------------------|
|---------------------------------------------------|
|---------------------------------------------------|
|---------------------------------------------------|

|-5---5-7-5-5---5-8-5-5---5-7-5-0-7-8-7-0-5-7-5-0-|
|--6-6-------6-6-------6-6------------------------|
|---7---------7---------7-------------------------|
|-------------------------------------------------|
|-------------------------------------------------|
|-------------------------------------------------|

|-4-5-4-0-5-7-5-0-7-8-7-0-8-10-8-0-12-12-12-12-12-12-13-13-13-13-13-13-15-15-15-15-15-15-16\-|
|--------------------------------------------------------------------------------------------|
|--------------------------------------------------------------------------------------------|
|--------------------------------------------------------------------------------------------|
|--------------------------------------------------------------------------------------------|
|--------------------------------------------------------------------------------------------|
Tap to rate this tab
# A B C D E F G H I J K L M N O P Q R S T U V W X Y Z